Song name
# A B C D E F G H I J K L M N O P Q R S T U V W X Y Z

Roo Panes - Sing For The Wind tab

-------------------------------------------------------------------------------
            SING FOR THE WIND - Roo Panes
-------------------------------------------------------------------------------
Play pattern one until verse pattern starts.  Use verse pattern during OHs
Tuning:Standard
Pattern 1
e|------3----------------3-----------------------------------------------------|
B|----0----0--(0)----0----0--(0)-----------------------------------------------|
G|--0-------0-------0-------0--------------------------------------------------|
D|-----------------------------------------------------------------------------|
A|-----------------------------------------------------------------------------|
E|-3---------------3-----------------------------------------------------------|
     Verse Pattern
e|---------3----------3----------3-----------3--------------------3--------------------|
B|------1-----------0----------1-----------0--0--(0)-----------0--0--(0)---------------|
G|---0------------0----------0-----------0-----0-------------0------0------------------|
D|---------------2---------------------------------------------------------------------|
A|-3------------------------3----------------------------------------------------------|
E|--------------------------------------3-------------------3--------------------------|
Chorus
You told me, sing for the wind my love   Fear not tomorrow
e|------------------3---------------------------3-------------------3-------------------3--------|
B|----------------0--0--0---------------------1---1--1-------------0--0--0-------------1---1--1--|
G|--------------0-----0---------------------0-------0-------------0-----0------------0------0----|
D|------------2-------------------------------------------------2--------------------------------|
A|-----------------------------------------3----------------------------------------3------------|
E|-----------------------------------------------------------------------------------------------|
Cos love's the journey of a lifetime,
and where you finish isn't where you start

So tomorrow doesn't worry me,
And though the path be untravelled at least I'm free,
To be great not just to be,
That's what your wise old words taught me.

You told me "sing for the wind my love,
fear not for tomorrow,
Cos love's the journey of a lifetime,
and where you finish isn't where you start"


************************************
| /   slide up
| \   slide down
| h   hammer-on
| p   pull-off
| ~   vibrato
| +   harmonic
| x   Mute note
| b   Bend
| pb  Pre-bend
| br  Bend release
| pbr Pre-bend release
| brb Bend release bend

************************************
Tap to rate this tab
 
# A B C D E F G H I J K L M N O P Q R S T U V W X Y Z