Song name
# A B C D E F G H I J K L M N O P Q R S T U V W X Y Z

Rookie Of The Year - Consider This Summer tab

i cant figure out the entire song cuz my ear isnt good enough  so heres the gist of 
some1 else can figure more out and post it

e--x------x------x----------------------------------|
b--3--/---8---/--7----------------------------------|
g--2--/---7------7----------------------------------|
d--0--/---x------x----------------------------------|
a--2--/---5------5----------------------------------|
E--x------x------x----------------------------------|


e-----------------------------------------------|
b----3----3----3--------------------------------|
g---0-0--0-0--0-0-------------------------------|
d-----------------------------------------------|
a--3----2---------------------------------------|
E------------1----3-----------------------------|

   rock and roll girl...come out side tonight...
e--x-------------------x-------------x-----------x--x---|
b--3-------------------3-------------3-----------3--3---|
g--2-------------------2-------------2-----------2--2---|
d--x-------------------0-------------0-----------0--0---|
a--2-------------------x-------------x-----------x--x---|
E--x-------------------2-------------3-----------2--3---|

   put your arms out...in the moon   light
e--x-------------------x-------------x-----------x--x---|
b--3-------------------3-------------3-----------3--3---|
g--2-------------------2-------------2-----------2--2---|
d--x-------------------0-------------0-----------0--0---|
a--2-------------------x-------------x-----------x--x---|
E--x-------------------2-------------3-----------2--3---|

   have u ever been in love well i have   this is something that
e--x-------------------x----------------x-------------------x-----|
b--3-------------------3----------------3-------------------3-----|
g--2-------------------2----------------2-------------------2-----|
d--x-------------------0----------------0-------------------0-----|
a--2-------------------x----------------x-------------------x-----|
E--x-------------------2----------------3-------------------2-----|

   we both should consider.....consider
e------------------x------------x--------------------|
b------------------3------------3--------------------|
g------------------2------------2--------------------|
d------------------x------------x--------------------|
a------------------2------------2--------------------|
E------------------x------------x--------------------|

thats all i have so far   lemme kno if u get nething else  or j/ tabs it...scottie P
Tap to rate this tab
# A B C D E F G H I J K L M N O P Q R S T U V W X Y Z