Song name
# A B C D E F G H I J K L M N O P Q R S T U V W X Y Z

Rookie Of The Year - Liars And Battlelines tab

this is basically it. i dont have the acoustic parts because ryan plays in c-tuning.

intro                         distorted, delay, reverb?
e|------------------------------|
b|-------------------12--12-----|
g|--------12--12-------------12-|
d|--10-10---10--10-10--10--10---|
a|------------------------------|
e|------------------------------|

verse
main chord progression C,Amin,F,C

distorted,delay
e|--12-15/8-10-8---.|x2
b|---------------8-.|
g|----------------- |
d|-----------------.|
a|-----------------.|
e|----------------- |

pre-chorus deal

electric 1
e|--15/17-12-15/17-12--------12--13-12--12-12--12--13-12------|
b|-------------------15-13-13--13-----13-----13--13-----13-12-|
g|------------------------------------------------------------|
d|------------------------------------------------------------|
a|------------------------------------------------------------|
e|------------------------------------------------------------|x2
distorted

electric 2
e|--8-8-7-7-----8-8-10-10-8-8--8-8-7-7-----8-8-10-10-8-7/8-|
b|---------10-10----------------------10-10----------------|
g|---------------------------------------------------------|
d|---------------------------------------------------------|
a|---------------------------------------------------------|
e|---------------------------------------------------------|
distorted, delay.
this is almost a counterpart to the first guitar, so youll have to listen for the timing.

chorus->same as intro
chords are the same also

brigde jawn.
e|-----------------------------------------|
b|--------------13-12----------------------|
g|--------12/9-9--9--9---------------------|
d|--7-9-10-------------5/7-9-10-10/12-10-9-|
a|-----------------------------------------|
e|-----------------------------------------|

second chorus lead
e|--12-8-15-8-12/10-8-10--12/10-8-10--|
b|-----------------------8----------8-|
g|------------------------------------|
d|------------------------------------|
a|------------------------------------|
e|------------------------------------|
slide from each note to note with a delay effect on. like a ping pong effect. this part 
also played at the very end the second time through the chorus.

solo
e|-----------------------------------|
b|--8/10-10/12-12/13-----13--15-13---|
g|------------------12-12--12-----12-|
d|-----------------------------------|
a|-----------------------------------|
e|-----------------------------------|
continued
e|-------------------------15--15-15-----15---|
b|--8/10-10/12-12/13--12h13--13-----12h13--13-|
g|------------------12------------------------|
d|--------------------------------------------|
a|--------------------------------------------|
e|--------------------------------------------|
continued
e|------------------------------------------------------|
b|--8/10-10/12-12/13-----13--15-13---8/10-10/12-12/13---|
g|------------------12-12--12-----12-----------------12-|
d|------------------------------------------------------|
a|------------------------------------------------------|
e|------------------------------------------------------|

then theres the little acoustic part "im breaking all these angles, falling down in circles..."
the electric part over it is small
e|--15--15--15--15--15--15--17--15--12--12--12--12--12---|
b|-------------------------------------------------------|
g|----12--12--12--12--12--12--12--12--12--12--12--12--12-|
d|-------------------------------------------------------|
a|-------------------------------------------------------|
e|-------------------------------------------------------|

thats pretty much it.

order:
intro
verse
pre-chorus
chorus
bridge jawnn
verse
chorus
solo
acoustic part
chorusx2 to end
Tap to rate this tab
# A B C D E F G H I J K L M N O P Q R S T U V W X Y Z