Song name
# A B C D E F G H I J K L M N O P Q R S T U V W X Y Z

Rookie Of The Year - Poison Like Your Own tab

This is an amazing song by an amazing band. This tab isn't too hard but I'm pretty sure 
accurate. I' Enjoy and feel free to comment or correct anything, I'm sort of a begginner 
be gentle. God Bless.

                                                 -Tyler Juice


-------------------------------------------------------------------------------
			     SONG NAME - Band Name
-------------------------------------------------------------------------------
Tabbed by:Tyler Juice
Email:

Tuning:Standard

Intro:
e|-------------0-------------------0-------------------------------------------|
B|-------------0-------------------0-------------------------------------------|
G|-------------6-------------------4-------------------------------------------|
D|-------------6-------------------4-------------------------------------------|
A|-------------4-------------------2-------------------------------------------|
E|-------------0-------------------0-------------------------------------------|


Verse:
e|------x------x-------------x-------x------------x------x--------x----x-------------|
B|------x------x-------------x-------x------------x------x--------x----x-------------|
G|------x------x-------------x-------x------------x------x--------x----x-------------|   
       x2                   x2                 x2          x2
D|------5------7-------------7-------3------------5------7--------7----3-------------|
A|------5------7-------------7-------3------------5------7--------7----3-------------|
E|------3------5-------------5-------1------------3------5--------5----1-------------|

e|------x----x--- x--|
B|------x----x----x--|
G|------7----9----5--|                   x4
D|------7----9----5--|
A|------5----7----3--|
E|------x----x----x--|


Chorus:
e|------x----x----------x-----   -9--7--10-----x-------9-10---|
B|------x----x----------x-------   8---8-------x-----------8--|
G|------x----x----------x----------------------x--------------|               x2
D|------7----3----------7----------------------7--------------|
A|------7----3----------7----------------------7--------------|
E|------5----1----------5----------------------5--------------|


Verse:


Chorus:


Bridge:
e|----x---x-- x-------x---x---x---x--|
B|----x---x---x-------x---x---x---x--|
G|----x---x---x-------x---x---x---x--|         x3
D|----7---5---3-------7---5---3---2--|
A|----7---5---3-------7---5---3---2--|
E|----x---x---x-------x---x---x---x--|


e|----x----x---x---x---x---x---x---x---x----x--------------------------------------------|
B|----x----x---x---x---x---x---x---x---x----x--------------------------------------------|
G|----x----x---x---x---x---x---x---x---x----x--------------------------------------------|
D|----7----5---3---5---7---3---7---5---3----5--------------------------------------------|
A|----7----5---3---5---7---3---7---5---3----5--------------------------------------------|
E|----5----3---1---3---5---1---5---3---1----3--------------------------------------------|


Chorus:


Outro:
e|----x-------------x-------------x-----------x-------------x---------------------|
B|----x-------------x-------------x-----------x-------------x---------------------|
G|----x-------------x-------------x-----------x-------------x---------------------|      
  x6            x6          x6         x6
D|----7-------------3-------------7-----------3-------------7---------------------|
A|----7-------------3-------------7-----------3-------------7---------------------|
E|----5-------------1-------------5-----------1-------------5---------------------|


| x  Mute note
===============================================================================
Tap to rate this tab
# A B C D E F G H I J K L M N O P Q R S T U V W X Y Z