Song name
# A B C D E F G H I J K L M N O P Q R S T U V W X Y Z

Rookie Of The Year - Blue Roses tab

My first ever tab! rate, comment, enjoy.
 
-------------------------------------------------------------------------------
			     Blue Roses - Rookie of the Year
-------------------------------------------------------------------------------
Tabbed by:chochichycha85
Email:chochichycha85@yahoo.com

Tuning:Standard

e|-----------------------------------------------------------|
B|-------------------------------------------------3---------|x4
G|-----3---2-----2-----3---------3---2h3---3---3-------------|
D|---3---3---3-3-----3---------3---3-----3---3---3-----------|
A|-1---------------0---------0-------------------------------|
E|-----------------------------------------------------------|

e|-----------------------------------------------|
B|-----------------------------------------------|
G|----11-11---------11-11--------11-11-----------|
D|----11-11---------11-11--------11-11-----------|
A|-----------------------------------------------|
E|-9-9-------9-11-11-------11-9-9-------9-11-----|

e|-----------------------------------------------------------|
B|-------------------------------------------------3---------|
G|-----3---2-----2-----3---------3---2h3---3---3-------------|
D|---3---3---3-3-----3---------3---3-----3---3---3-----------|
A|-1---------------0---------0-------------------------------|
E|-----------------------------------------------------------|

e|-----------------------------------------------------------|
B|-------------------------------------------------3---------|
G|-----3---2-----2-----3---------3---2h3---3---3-----2-------|
D|---3---3---3-3-----3---------3---3-----3---3---3-----3-----|
A|-1---------------0---------0-------------------------------| 
E|-----------------------------------------------------------|

e|-----------------------------------------------------------|
B|-------------------------------------------------3---------|x2
G|-----3---2-----2-----3---------3---2h3---3---3-------------|
D|---3---3---3-3-----3---------3---3-----3---3---3-----------|
A|-1---------------0---------0-------------------------------|
E|-----------------------------------------------------------|


e|----------------------------------------------|
B|----------------------------------------------|x2
G|----11-11---------11-11--------11-11----------|
D|----11-11---------11-11--------11-11----------|
A|----------------------------------------------|
E|-9-9-------9-11-11-------11-9-9-------9-11----|

e|-------------------------------|
B|-------------------------------|x3
G|-----3-----3-----3---3-------3-|
D|---3-----3-----3---3---3---3---|
A|-0-----1-----0-----------0-----|
E|-------------------------------|

e|-----------------|
B|-----------------|
G|-----3-----3-----|
D|---3-----3-------|
A|-0-----1-----0---|
E|-----------------|

e|-----------------------------------------------------------|
B|-------------------------------------------------3---------|x2
G|-----3---2-----2-----3---------3---2h3---3---3-------------|
D|---3---3---3-3-----3---------3---3-----3---3---3-----------|
A|-1---------------0---------0-------------------------------|
E|-----------------------------------------------------------|

e|-----------------|
B|----7-5-4--------|x4
G|-3~--------------|
D|-3~--------------|
A|-1~--------------|
E|-----------------|

e|----------------------|  
B|----------------------|x3
G|-9-7-5/9\5-7-5-7-5----|  
D|----------------------|  
A|----------------------|  
E|----------------------|  

e|----------------------|
B|----------------------|
G|-9-7\5/9-9-7\5/7-7-5--|
D|----------------------|
A|----------------------|
E|----------------------|

e|------------------------------------------------------------------------|
B|------------------------------------------------------------------------|
G|-99977755555555-999999999/11111111-99977755555555-7777777777777777------|
D|-xxxxxxxxxxxxxx-xxxxxxxxx-xxxxxxxx-xxxxxxxxxxxxxx-7777777777777777------|
A|-77755533333333-777777777/99999999-77755533333333-5555555555555555------|
E|------------------------------------------------------------------------|

e|---------------------------------|
B|-88-1010-88-1010-8888------------|X4
G|---------------------------------|
D|---------------------------------|
A|---------------------------------|
E|---------------------------------|

e|---------------------------------|
B|-16-14-12-12h^14-7~--------------|
G|---------------------------------|
D|---------------------------------|
A|---------------------------------|
E|---------------------------------|

e|-----------------------------------|
B|-----------------------------------|
G|-----3-----3-----3-----3-----3-----|
D|---3-----3-----3-----3-----3-------|
A|-0-----1-----------------1---------|
E|------------3-----3----------------|

e|-----------------------------------|
B|-----------------------------------|
G|-----3-----3-3~--------------------|
D|---3-----3---3~--------------------|
A|-1-----------1~--------------------|
E|-------3---------------------------|


| /  slide up
| \  slide down
| h  hammer-on
| p  pull-off
| ~  vibrato
| +  harmonic
| x  Mute note
===============================================================================
Tap to rate this tab
 
# A B C D E F G H I J K L M N O P Q R S T U V W X Y Z