Guitaretab - guitar tabs
Song name
# A B C D E F G H I J K L M N O P Q R S T U V W X Y Z

Rookie Of The Year - Sign Of Her Glory tab

Sign of Her Glory

Rookie of the Year

Tuning: standard (I think I've seen them play it in drop-D but I tabbed it in standard)

Legend: Guitar 1: lead guitar, the most prominent electric
	Guitar 2: rhythm electric guitar

Notes: I didn't tab out rhythms or anything, just listen to the album they aren't hard to get.
	I also didn't tab out the part for the acoustic guitar yet.

	( ) around a note means the note ring

	Itís still a work in progress, but hereís what I got:


0:00 - :39

I haven't figured out the exact part yet but I believe the root note changes are:

D G D G D C D G D C D G D C E G D C D G

:39 - 1:04

E----------------------------7-------------------------------10----------|
B-------------------8---8-----8---------------------8---8-----8----------|
G--5/7--7--7h9----9---9----9---5/7--7--7h9---9--9------9-----------------|
D------------------------------------------------------------------------|
A------------------------------------------------------------------------|
E------------------------------------------------------------------------|


E----------------------------7-------------------------|
B-------------------8---8-----8------8\6---6-----------|
G--5/7--7--7h9----9---9----9--5------9---9-------------|
D------------------------------------------------------|
A------------------------------------------------------|
E------------------------------------------------------|

E----------------------------7-------------------------------10------------------------------7--|
B-------------------8---8-----8---------------------8---8-----8--------------------8--8----8----|
G--5/7--7--7h9----9---9----9---5/7--7--7h9---9--9------9--5/7--7--7h9--9--9----9/17-------------|
D-----------------------------------------------------------------------------------------------|
A-----------------------------------------------------------------------------------------------|
E-----------------------------------------------------------------------------------------------|

1:03 - 1:28

Guitar 2  (volume swells)

E------------------|
B------------------|
G--5---5-----------|
D--5---5----5------|
A--3---3----5------|
E------------3-----|

1:30 - 1:43

E-----------------------------------------------------------------|
B-----------------------------------------------------------------|
G--5--5--5--5/7\5--5--5--5-7-5--5--5--5-7-5--7-5------------------|
D--x--x--x--x-x-x--x--x--x-x-x--x--x--x-x-x---x-x-----------------|
A--3--3--3--3/5\3--3--3--3/5\3--3--3--3/5\(7)\5\3-----------------|
E-----------------------------------------------------------------|

E-----------------------------------------------------------------------------------------------------|
B-----------------------------------------------------------------------------------------------------|
G--12--12--12--12-14-12--12--12--12-14-12--12--12--12-14-16--16--16--17-17-17-17-17-------------------|
D---x---x----x----x---x---x----x---x----x---x---x---x----x----x--x----x---x----x----x--x---x---x---x--|
A--10--10--10--10/12\10--10--10--10/12\10--10--10--10/12/14--14--14--15-15-15-15-15-------------------|
E-----------------------------------------------------------------------------------------------------|

Guitar 2 (sort of a syncopated triplet rhythm)

E-----------            E------------------|
B-----------            B------------------|
G--5-5-5--    x8    G--12-12-12------------|   x8
D--x-x-x--            D---x---x---x--------|
A--3-3-3--            A--10-10-10----------|
E-----------            E------------------|

1:44 - 2:11 As far as I can tell both guitars play this same part

I'll give the chord orders, the rhythm is easy to grab just listen to the record.

E------            E-----------------------------|
B--x--            B------------------------------|
G--x--  (x8 quickly)    G------------------------|     x2
D--x--            D--3-----7----5----------------|
A--x--            A--3-----7----5----------------|
E------            E--1-----5----3---------------|

2:12 - 2:25
[ Tab from: http://www.guitaretab.com/r/rookie-of-the-year/95784.html ]
E-----------------          E-----------------------|
B-----------------         B------------------------|
G----------5-----    x1 G---(5)---------------------|     X1
D--3--5--5--5---         D---(5) ---(3)-------------|(5)
A--3--5--3--5 --         A---(3)----(3)-------------|(5)
E--1--3------3---       E----------(1)--------------|(3)

2:33 - 2:39

E--------------------------------------------|
B--------------------------------------------|
G------------------------------5-------------|
D--5-3-3-3-3-3-3-3-3----5--3--(5)------------|
A--5-3-3-3-3-3-3-3-3----3--3--(5)------------|
E--3\1-1-1-1-1-1-1-1--------1--(3)-----------|

2:39 - 3:06  Verse 2

E--10----10--10---------|
B------8-----8----8-----|
G--------9-----9--------|
D-----------------------|
A-----------------------|
E-----------------------|

3:19 - 3:46

Chorus again

4:00 - 4:15

E-----------------------------------------------------------------------------------------------------------------------|
B------------------------------------------------------------8-8-8------------------------------------------------------|
G------------5--7--5------------------------5--7--5------------------------5-7-5----------------------------------------|
D--5/7--9------------9--5-5-5---5/7--9------------9-----------5/7--9----------9--5-5-5-5/7\5----------------------------|
A-------------------------------------------------------------------------------------------------------------(7)--(5)--|
E-----------------------------------------------------------------------------------------------------------------------|

Guitar 2

E-----------------|
B-----------------|
G--5-5-5--    x16-|
D--x-x-x----------|
A--3-3-3----------|
E-----------------|

4:15 - 4:28

E----------------------------7-------------------------------10----------------------------------7--|
B-------------------8---8-----8---------------------8---8-----8----------------------8---8-----8----|
G--5/7--7--7h9----9---9----9---5/7--7--7h9---9--9------9---5/7--7--7h9----9---9-----9---------------|
D---------------------------------------------------------------------------------------------------|
A---------------------------------------------------------------------------------------------------|
E---------------------------------------------------------------------------------------------------|

E------------------------------------------------------|
B--10---------10-----10----10-----10-------------------|
G-------8----------8------8------8-------8---8---------|
D----------9---------9------9-------9------9-----------|
A------------------------------------------------------|
E------------------------------------------------------|


Guitar 2

E-------------------------------|
B-------------------------------|
G-------5-------------5---------|
D--3---5--3--5--3--5--5---------|
A--3---3--3--5--3--3--5---------|
E--1------1---3--1-----3--------|

4:29 - END

E------------8-8-----------8-8----------8-8-----------8-8-----------------------------------8-8-----------8-8------8--|
B-----8-8-----------8-8---------8-8-----------8-8------------8-8---8-8----8-----8-8-----------8-8------------8---8----|
G--7------7------7------7-----7------7-----7------7-------7------7------7-----7-------7-----7-------7-------7---------|
D---------------------------------------------------------------------------------------------------------------------|
A---------------------------------------------------------------------------------------------------------------------|
E---------------------------------------------------------------------------------------------------------------------|

Eó8\3--
B---------|
G---------|
D---------|
A---------|
E---------|


Guitar 2

E---------------------------------------|
B---------------------------------------|
G--5---------------5-----(5)------------|
D--5--5--3--------5--5-(5)--(3)---------|
A--3--5--3--------3--5-(3)--(3)---------|
E------3--1-----------3-----------------|(1)ó

Check out my band at:

		www.myspace.com/fastlanerocks
Related for Sign Of Her Glory tab