Song name
# A B C D E F G H I J K L M N O P Q R S T U V W X Y Z

Rookiez Is Punkd - Complication tab

Complication ~Still Struggle Version~
by ROOKiEZ is PUNK'd

This is a different version of Complication. You should find it if you search it in 
YouTube. ^^ It's A LITTLE different in the original version, so I figured I should share the 
differences. I don't think it's 100% accurate, though. The song is really in their albums.

Standard Tuning

INTRO - Clean
e|------------------------------------------|
B|-------5-------4--------------------------|
G|---------4-------4------2-----1-----------|
D|-----6-------4--------2-----2---2---------|
A|-7-4-------2--------0-----2---------------|
E|------------------------------------------|

e|----------------------------------------|
B|-----5-------4--------------------------|
G|-------4-------4------2-----1-----------|2x
D|---6-------4--------2-----2---2---------|
A|-4-------2--------0-----2---------------|
E|----------------------------------------|

Distortion
e|-----------|
B|-----------|
G|-6-6-6-6-6-| Or if you prefer clean...
D|-6-6-6-6-6-|
A|-4-4-4-4-4-|
E|-----------|

e|-8h9-8h9-8h9-8h9-8h9-|
B|---------------------|
G|---------------------|
D|---------------------|
A|---------------------|
E|---------------------|

INTRO2 - Distortion
e|-------------|-------------|-------------|-----------|
B|-------------|-------------|-------------|-----------|
G|-22----44-66-|-22---4-6666-|-22----44-66-|-22---4----|
D|-22-44-44-66-|-22-4-4-6666-|-22-44-44-66-|-22-4-4-22-|
A|-00-44-22-44-|-00-4-2-4444-|-00-44-22-44-|-00-4-2-22-|
E|----22-------|----2--------|----22-------|----2---00-|

INTRO2 - Clean
e|-------------------------------------------------|
B|-7--5-4--5-----5-4--5-----5-4--5---7\5-7/9---7-9-|
G|------------4----------4-------------------------|
D|-------------------------------------------------|
A|-------------------------------------------------|
E|-------------------------------------------------|

e|--------------------------------------------------|
B|----5-4--5-----5-4--5---4-5-4--7-4-5--9-12--------|
G|-4----------4-------------------------------------|
D|--------------------------------------------------|
A|--------------------------------------------------|
E|--------------------------------------------------|

e|-------------------------------------------------|
B|----5-4--5-----5-4--5-----5-4--5---7\5-7/9---7-9-|
G|-4----------4----------4-------------------------|
D|-------------------------------------------------|
A|-------------------------------------------------|
E|-------------------------------------------------|

e|--------------------------------------------|
B|----5-4--5-----5-4--5-----5-4--5---7--9--12-|
G|-4----------4----------4--------------------|
D|--------------------------------------------|
A|--------------------------------------------|
E|--------------------------------------------|

VERSE1 - Clean
Note: This is pretty much the same with the original version.
e|----------------------------------------------------------|
B|-------0--------------4--------------5--------------5-4-0-|
G|-----2----2---2-----4----4---4-----6----6---6-----6-------|
D|---2--------2-----4--------4-----6--------6-----6---------|
A|-0--------------2--------------4--------------4-----------|
E|----------------------------------------------------------|

e|----------------------------------------------7-4-0-4--------|
B|-------0--------------4--------------5-----------------5-4-5-|
G|-----2----2---2-----4----4---4-----6----6---6----------------|
D|---2--------2-----4--------4-----6--------6------------------|
A|-0--------------2--------------4-----------------------------|
E|-------------------------------------------------------------|

e|----------------------------------------------------------|
B|-------0--------------4--------------5--------------5-4-0-|
G|-----2----2---2-----4----4---4-----6----6---6-----6-------|
D|---2--------2-----4--------4-----6--------6-----6---------|
A|-0--------------2--------------4--------------4-----------|
E|----------------------------------------------------------|

e|---------------------------------------------7-|
B|-------0--------------4--------------5---------|
G|-----2----2---2-----4----4---4-----6----6---6--|
D|---2--------2-----4--------4-----6--------6----|
A|-0--------------2--------------4---------------|
E|-----------------------------------------------|

PRE-CHORUS - Distortion
Note: Also the same with the orig.
e|------------------|
B|------------------|
G|------------------|
D|-4-6-7-2--4-6-7-9-|
A|-4-6-7-2--4-6-7-9-|
E|-2-4-5-0--2-4-5-7-|

CHORUS - Distortion
e|-------------|------------|-------------|----------|
B|-------------|------------|-------------|----------|
G|-22-44----66-|-22-44-6666-|-22-44----66-|-22-44----|
D|-22-44-22-66-|-22-44-6666-|-22-44-22-66-|-22-44-22-|
A|-00-22-22-44-|-00-22-4444-|-00-22-22-44-|-00-22-22-|
E|-------00----|------------|-------00----|-------00-|

VERSE 2 - Clean
VERSE 1 tabs is also played here, but this can also be heard in the background.
It's only in the first 2 stanzas of the verse.
e|-------------------------------------------|
B|-------------------------------------------|
G|-------------------------------------------|
D|-------------------------------------------|
A|----5/7-----7/9-----9/11---9/11-9-7--------|
E|--5-------7-------9-----------------7--7/9-|

e|--------------------------|
B|--------------------------|
G|--------------------------|
D|--------------------------|
A|-----5/7-----7/9-----9/11-|
E|-4-5-------7-------9------|

3rd-4th stanza
e|-12------14~-|
B|-----12------|
G|-------------|
D|-------------|
A|-------------|
E|-------------|

Repeat: PRE-CHORUS - Distortion

CHORUS2 - Distortion
e|-------------|------------|
B|-------------|------------|
G|-22-44----66-|-22-44-6666-|
D|-22-44-22-66-|-22-44-6666-|2x
A|-00-22-22-44-|-00-22-4444-|
E|-------00----|------------|

INTERLUDE - CLEAN
e|-7-7-7-----------7-7-7-----------7-7-7------------------------|
B|-------7-7-7-5-5-------7-7-7-5-5-------7-7-7-5--4--5-0--5-7-5-|
G|--------------------------------------------------------------|
D|--------------------------------------------------------------|
A|--------------------------------------------------------------|
E|--------------------------------------------------------------|
>There should be something in between. I can't do it by ear though. Sorry. _(_ _)_
e|-7-5-4-0--9--11--12-|
B|--------------------|
G|--------------------|
D|--------------------|
A|--------------------|
E|--------------------|

POST-INTERLUDE - Clean
e|---------------|
B|-0-4-4-5-0-4-5-|
G|-2-4-4-4-2-4-4-|
D|---------------|
A|---------------|
E|---------------|

CHORUS3 - Distortion
e|-------------|------------|
B|-------------|------------|
G|-22-44----66-|-22-44-6666-|
D|-22-44-22-66-|-22-44-6666-|2x
A|-00-22-22-44-|-00-22-4444-|
E|-------00----|------------|

e|-------------|------------|-------------|-------|
B|-------------|------------|-------------|-------|
G|-22-44----66-|-22-44-6666-|-22-44----66-|-22-44-|
D|-22-44-22-66-|-22-44-6666-|-22-44-22-66-|-22-44-|
A|-00-22-22-44-|-00-22-4444-|-00-22-22-44-|-00-22-|
E|-------00----|------------|-------00----|-------|

e|-------------|
B|-------------|
G|-9-9-9-9-9-9-|
D|-9-9-9-9-9-9-|
A|-7-7-7-7-7-7-|
E|-------------|

OUTRO - Clean
e|----------------------------------------|
B|-----5-------4--------------------------|
G|-------4-------4------2-----1-----------|3x
D|---6-------4--------2-----2---2---------|
A|-4-------2--------0-----2---------------|
E|----------------------------------------|

e|---------------7-|
B|-----5-------4-0-|
G|-------4---------|
D|---6-------4-----|
A|-4-------2-------|
E|-----------------|

#end of tabs. :)
Tap to rate this tab
# A B C D E F G H I J K L M N O P Q R S T U V W X Y Z