Song name
# A B C D E F G H I J K L M N O P Q R S T U V W X Y Z

Rookiez Is Punkd - In My World tab

                  In My World (Theme song for Blue Exorcist)

Tuning is C#G#C#F#A#D#

2nd Guitarist:
|---------------------------------------------------------------------|
|---------------------------------------------------------------------|
|---------------------------------------------------------------------|
|---------------------------------------------------------------------| 
|-0-3-5------------------------0-3-5----------------------------------|
|--------0--0--0--0--0--0---0--------0--0--0--0--0--0-----------------|

 
1st Guitarist: throughout whole song

|---------------------------------------------------------------------|
|-----------------------------------------------------------15--------|
|--------------------------------------------------------------12--14-|
|---------------------------------------------------------------------|
|--0-3-5--0-0-X-0-0-X-0-0-X-0---0-3-5--0-0-X-0-0-X-0-0-X-0------------|
|---------0-0-X-0-0-X-0-0-X-0----------0-0-X-0-0-X-0-0-X-0------------|

|---------------------------------------------------------------------|
|---------------------------------------------------------------------|
|-10-10-10-10-10-10-10-10-10-10-10-10-10-10-----12--------------------|
|--------------------------------------------12-----------------------|
|---------------------------------------------------------------------|
|---------------------------------------------------------------------|

|---------------------------------------------------------------------|
|---------------------------------------------------------------------|
|-10-10-10-10-10-10-10-10-10-10-10-10-10-10-----12--------------------|
|--------------------------------------------12-----------------------|
|---------------------------------------------------------------------|
|---------------------------------------------------------------------|

|---------------------------------------------------------------------|
|---------------------------------------------------------------------|
|-10-10-10-10-10-10-10-10-10-10-10-10-10-10-10-10---------------------|
|---------------------------------------------------------------------|
|---------------------------------------------------------------------|
|---------------------------------------------------------------------|

|---------------------------------------------------------------------|
|---------------------------------------------------------------------|
|-10-10-10-10-10-10-10-10-10-10-10-10-10-10-10-10---------------------|
|---------------------------------------------------------------------|
|---------------------------------------------------------------------|
|---------------------------------------------------------------------|
(PAUSE WHILE THE OTHER GUITAR PLAYS)

|---------------------------------------------------------------------|
|---------------------------------------------------------------------|
|-10-10-10-10-10-10-10-10-10-10-10-10-10-10-10-10---------------------|
|---------------------------------------------------------------------|
|---------------------------------------------------------------------|
|---------------------------------------------------------------------|

|---------------------------------------------------------------------|
|---------------------------------------------------------------------|
|-10-10-10-10-10-10-10-10-10-10-10-10-10-10-10-10---------------------|
|---------------------------------------------------------------------|
|---------------------------------------------------------------------|
|---------------------------------------------------------------------|

|---------------------------------------------------------------------|
|---------------------------------------------------------------------|
|-10-10--x--10-10--X-X--10-10-10--X-----------------------------------|
|--------X---------X-X------------X--12-12-12-------------------------|
|--------X---------X-X------------X-----------------------------------|
|---------------------------------------------------------------------|

|---------------------------------------------------------------------|
|---------------------------------------------------------------------|
|-10-10--x--10-10--X-X--10-10-10--X-----------------------------------|
|--------X---------X-X------------X--12-12-12-------------------------|
|--------X---------X-X------------X-----------------------------------|
|---------------------------------------------------------------------|

|---------------------------------------------------------------------|
|---------------------------------------------------------------------|
|-10-10-10-10-10-10-10-10-10-10-10-10-10-10-10-10---------------------|
|---------------------------------------------------------------------|
|---------------------------------------------------------------------|
|---------------------------------------------------------------------|

|---------------------------------------------------------------------|
|---------------------------------------------------------------------|
|-10-10-10-10-10-10-10-10-10-10-10-10-10-10-10-10---------------------|
|---------------------------------------------------------------------|
|---------------------------------------------------------------------|
|---------------------------------------------------------------------|

|-15p13h15p13h15p13h15p13h15p13h15p13h15p13h15p13---------------------|
|---------------------------------------------------------------------|
|---------------------------------------------------------------------|
|---------------------------------------------------------------------| X3
|---------------------------------------------------------------------|
|---------------------------------------------------------------------|

|-12p10h12p10h12p10h12p10h12p10h12p10h12p10h12p10---------------------|
|---------------------------------------------------------------------|
|---------------------------------------------------------------------|
|---------------------------------------------------------------------|
|---------------------------------------------------------------------|
|---------------------------------------------------------------------|

|-10------12------10----15--------------------------------------------|
|-----12------12------------------------------------------------------|
|---------------------------------------------------------------------| X7
|---------------------------------------------------------------------|
|---------------------------------------------------------------------|
|---------------------------------------------------------------------|

|-10------12--10----15------------------------------------------------|
|-----12--------------------------------------------------------------|
|---------------------------------------------------------------------| 
|---------------------------------------------------------------------|
|---------------------------------------------------------------------|
|---------------------------------------------------------------------|

|---------------------------------------------------------------------|
|---------------------------------------------------------------------|
|-10--10--10--10--10--10---10-10------12------------------------------| 
|---------------------------------12----------------------------------| X7
|---------------------------------------------------------------------|
|---------------------------------------------------------------------|
 (PAUSE WHILE THE OTHER GUITAR PLAYS)

|-15p13h15p13h15p13h15p13h15p13h15p13h15p13h15p13---------------------|
|---------------------------------------------------------------------|
|---------------------------------------------------------------------|
|---------------------------------------------------------------------| X3
|---------------------------------------------------------------------|
|---------------------------------------------------------------------|

|-12p10h12p10h12p10h12p10h12p10h12p10h12p10h12p10---------------------|
|---------------------------------------------------------------------|
|---------------------------------------------------------------------|
|---------------------------------------------------------------------|
|---------------------------------------------------------------------|
|---------------------------------------------------------------------|

|-10------12------10----15--------------------------------------------|
|-----12------12------------------------------------------------------|
|---------------------------------------------------------------------| X7
|---------------------------------------------------------------------|
|---------------------------------------------------------------------|
|---------------------------------------------------------------------|

|-10------12--10----15------------------------------------------------|
|-----12--------------------------------------------------------------|
|---------------------------------------------------------------------| 
|---------------------------------------------------------------------|
|---------------------------------------------------------------------|
|---------------------------------------------------------------------|

                               Guitar Solo

|---------------------------------------------------------------------|
|---------------------------------------------------------------------|
|-14-14-12-14---14-12-14---14-12-14-12--------------------------------| 
|---------------------------------------10b~--------------------------| X3
|---------------------------------------------------------------------|
|---------------------------------------------------------------------|

|---------------------------------------------------------------------|
|---------------------------------------------------------------------|
|----------------------14--12-----------------------------------------|
|-10/8--7--8--7/10----------------------------------------------------|
|---------------------------------------------------------------------|
|---------------------------------------------------------------------|

|--------------------------------------------------------------------------|
|--------------------------------------------------13-13-13-13-13-13-13-13-|
|-12-12-12-12-12-12-12-12--14-14-14-14-14-14-14-14-------------------------|
|--------------------------------------------------------------------------|
|--------------------------------------------------------------------------|
|--------------------------------------------------------------------------|

|-10-10-10-10-10-10-10-10--12-12-12-12-12-12-12-12--------------------|
|---------------------------------------------------------------------|
|---------------------------------------------------------------------|
|---------------------------------------------------------------------|
|---------------------------------------------------------------------|
|---------------------------------------------------------------------|

|-15-15-15-15-15-15-15-15b~-------------------------------------------|
|---------------------------------------------------------------------|
|---------------------------------------------------------------------|
|---------------------------------------------------------------------|end
|---------------------------------------------------------------------|
|---------------------------------------------------------------------|
(SHORT PAUSE)

|-10------12------10----15--------------------------------------------|
|-----12------12------------------------------------------------------|
|---------------------------------------------------------------------| X7
|---------------------------------------------------------------------|
|---------------------------------------------------------------------|
|---------------------------------------------------------------------|

|-10------12--10----15------------------------------------------------|
|-----12--------------------------------------------------------------|
|---------------------------------------------------------------------| 
|---------------------------------------------------------------------|
|---------------------------------------------------------------------|
|---------------------------------------------------------------------|

|-10------12------10----15--------------------------------------------|
|-----12------12------------------------------------------------------|
|---------------------------------------------------------------------| X7
|---------------------------------------------------------------------|
|---------------------------------------------------------------------|
|---------------------------------------------------------------------|

|-10------12--10----15------------------------------------------------|
|-----12--------------------------------------------------------------|
|---------------------------------------------------------------------| 
|---------------------------------------------------------------------|
|---------------------------------------------------------------------|
|---------------------------------------------------------------------|

|---------------------------------------------------------------------|
|---------------------------------------------------------------------|
|-10-10-10-10-10-10-10-10-10-10-10-10-10-10-----12--------------------|
|--------------------------------------------12-----------------------|
|---------------------------------------------------------------------|
|---------------------------------------------------------------------|

|---------------------------------------------------------------------|
|---------------------------------------------------------------------|
|-10-10-10-10-10-10-10-10-10-10-10-10-10-10-----12--------------------|
|--------------------------------------------12-----------------------|
|---------------------------------------------------------------------|
|---------------------------------------------------------------------|

|---------------------------------------------------------------------|
|---------------------------------------------------------------------|
|-10-10-10-10-10-10-10-10-10-10-10-10-10-10-10-10---------------------|
|---------------------------------------------------------------------|
|---------------------------------------------------------------------|
|---------------------------------------------------------------------|

|---------------------------------------------------------------------|
|---------------------------------------------------------------------|
|-10-10-10-10-10-10-10-10-10-10-10-10-10-10-10-10---------------------|
|---------------------------------------------------------------------|
|---------------------------------------------------------------------|
|---------------------------------------------------------------------|



*Its a really good song hope you all enjoy it
Tap to rate this tab
 
# A B C D E F G H I J K L M N O P Q R S T U V W X Y Z