Song name
# A B C D E F G H I J K L M N O P Q R S T U V W X Y Z

Rooney - Dont Come Around Again tab

-------------------------------------------------------------------------------
			     Dont Come Around Again-Rooney
-------------------------------------------------------------------------------

Chords Used:
G - 320033 or 355433
C - x32010 or x35553
F - 133211 (chorus) or (verse)-x8.10.10.10.8
D - x57775
Em - 022000
A#/Bb - 13331





Tabbed by:TheTroy
Tuning:Standard

Intro
e|---------------------------------------------------------------------------|
B|---------------------------------------------------------------------------|
G|-------3-0-------3-0---0~--------------------------------------------------|
D|-0-3-0-----0-2-3-----2-----------------------------------------------------|
A|---------------------------------------------------------------------------|
E|---------------------------------------------------------------------------|

VERSE

G
You say it's hard to read me
  C               G
I make it hard for you
G
I'm not that easy
     C                    G
It's a strength you can't undo
F                       C
Your mind ain't playing tricks
    G
And neither am I
F                          C
Well, this ain't more than kicks
D
I like your kind

CHORUS
G      F             Em
Ooooo, you're asking for trouble
A#/Bb      F
Don't come around again

INTERLUDE (intro)

VERSE
G                C             G
I live alone and I got no more room
G                  C                   G
And I won't get my peace til I'm in my tomb
F
I'm warnin' you
C                   G
Warnin' you to stay away
F
Cause you'll be hurtin'
C                G  D
Hurtin' the next day

CHORUS


INTERLUDE

Em      C    G       D
I don't need another enemy
Em            C      G       D
And you don't need a painful memory

INTERLUDE



SOLO: (i know its prob. wrong but i tried!!!!! and this is what i play 
so its pretty much improvised at the very end of the solo. ok?)

e|-----------------18--------------------------------------------------------|
B|-18b20(hold bend)----(mess around with this for the 1st part)--------------|
G|---------------------------------------------------------------------------|
D|---------------------------------------------------------------------------|
A|---------------------------------------------------------------------------|
E|---------------------------------------------------------------------------|

e|------------------------------------------10---10--10(bla bla)-------------|
B|---------------------10/12-12p10h12-12b13----13--13------------13r12-------|
G|-----------------7/9-------------------------------------------------------|
D|-----------5-7/9-----------------------------------------------------------|
A|-------5/7-----------------------------------------------------------------|
E|-3-3-6---------------------------------------------------------------------|

e|---------------------------------------------------------------------------|
B|-12p10h12---10-------------------------------------------------------------|
G|---------12----12~---------------------------------------------------------|
D|---------------------------------------------------------------------------|
A|---------------------------------------------------------------------------|
E|---------------------------------------------------------------------------|


During this verse play: 

e|---------------------------------------------------------------------------|
B|-15b17r15-13---------------------------------------------------------------|
G|-------------12------------------------------------------------------------|
D|---------------------------------------------------------------------------|
A|---------------------------------------------------------------------------|
E|---------------------------------------------------------------------------|

F                  C                      G
I'm a bad man when it comes to girls like you
F
Yeah, I'm a bad man
            C               D
and there's nothin' you can do

PLAY CHORUS ? times


then just intro till end.


YAY! this took me a while!!!!
Tap to rate this tab
# A B C D E F G H I J K L M N O P Q R S T U V W X Y Z