Song name
# A B C D E F G H I J K L M N O P Q R S T U V W X Y Z

Rooney - Tell Me tab

-------------------------------------------------------------------------------
			     TELL ME - Rooney
-------------------------------------------------------------------------------
Tabbed by: Charlotte Fennell
Email: charliecure87@aol.com

Tuning: Standard

This is my first tab so go easy on me. :) There's still a few parts of the song I need 
tab, so I'll add them as I tab them. I think this is fairly accurate... if you notice 
that needs changing, please e-mail me and I'll edit it.

Intro

e|------------------------------------------12/14-14-14-12/14-12\5/7-7/9-7-5/7--|
B|------------------------------------------------------------------------------|
G|-9/11-11-11-9/11-9\---2/4-4/6\4-2/4-4/6---------------------------------------|
D|------------------------------------------------------------------------------|
A|------------------------------------------------------------------------------|
E|------------------------------------------------------------------------------|

e|-7/9-7h9p7-5---7/9---12/14-12--|
B|-------------5-----------------|
G|-------------------------------|
D|-------------------------------|
A|-------------------------------|
E|-------------------------------|

Second Verse

e|---------------|-------------------|-------------------------------|
B|---------------|-------------------|---------------10----10-12/14--|
G|---------------|--------9----------|--------9-9/11----11-----------|
D|-----2---------|---9/11---11\9-7---|---9/11------------------------|
A|-2/4---4\2-0---|-------------------|-------------------------------|
E|---------------|-------------------|-------------------------------|

Solo

e|------------------------------------|
B|-7-7/9-7/9-7---7/9\7\5--------------|
G|-----------------------6-4-2\1------|
D|-------------------------------2/4--|  x2
A|------------------------------------|
E|------------------------------------|

e|--------------------10/12-12/14-12/14-12/14-12--|
B|-----------------10-----------------------------|
G|-------------6/9--------------------------------|
D|-2/4-4---6/7------------------------------------|
A|------------------------------------------------|
E|------------------------------------------------|


| /  slide up
| \  slide down
| h  hammer-on
| p  pull-off
| ~  vibrato
| +  harmonic
| x  Mute note
===============================================================================

Intro

A D E x2
A E

Verse 1
	     A
I've done it all, dear
    D                 E
The games that lovers play
              A
I've had them both, dear
    D                  E
The good times and the bad
              A                    D     E
Save all your tears for some other guy

Chorus
            A
Tell me you love me
     D           E
It's all I wanna hear
            A
Tell me you love me
     D           E
It's all I wanna hear
     A
From you
        E
Tell me soon

Verse 2 (Chords as above)

Solo

A D E A x2
A D E D C#m
Tap to rate this tab
 
# A B C D E F G H I J K L M N O P Q R S T U V W X Y Z