Song name
# A B C D E F G H I J K L M N O P Q R S T U V W X Y Z

Rooney - When Did Your Heart Go Missing tab

This is the intro and riff that is played throughout the song. It should all be correct. 
tuning(EBGDAE)

E------------------------|
B--0-3-0-----------------|
G--------2-4-4-7-4-2-----|
D------------------------|
A------------------------|
E------------------------|


E------------------------|
B--0-3-0-----------------|
G--------2-4-4-9-4-2-----|
D------------------------|
A------------------------|
E------------------------|

The first riff is played in the beginning and the first and second riff are played 
the chorus.
Tap to rate this tab
 
# A B C D E F G H I J K L M N O P Q R S T U V W X Y Z