Song name
# A B C D E F G H I J K L M N O P Q R S T U V W X Y Z

Rooney - Are You Arfraid tab

Someone already tabbed out the chords.
They left out the solo, which is really quite easy.
I dunno if Taylor Locke has a guitar with a whammy bar on it,
but that's what I used to get the sound on some parts right.

e|--12---12-12-12-12-12-12-12-12--------------------|
B|--15b-----------------------15b---(whammy bar)----|
G|--------------------------------------------------|
D|--------------------------------------------------| 
A|--------------------------------------------------|
E|--------------------------------------------------|

e|-----------------------------------------------------|
B|-12--------15----------------------------------------|
G|-14b----16----17--16h17p1615---12p11h12--------------|
D|-----------------------------------------------------| 
A|-----------------------------------------------------|
E|-----------------------------------------------------|

e|---0-------------------------------------------------------------|
B|---0-------------------------------------------------------------|
G|---0-------------------------------------------------------------|
D|-2---------------------------------------------------------------| 
A|-2--(let it ring, and then dive down with that whammy bar)-------|
E|-0---------------------------------------------------------------|

e|---------------12--15-15-12-15/17-17b----------------|
B|-----------------------------------------------------|
G|-7h9-9-9-7-------------------------------------------|
D|-----------9-----------------------------------------| 
A|-----------------------------------------------------|
E|-----------------------------------------------------|

And then Louie comes in with the synth.

e|-----------------------------------------------------|
B|-----------------------------------------------------|
G|--14/16-14--9/11/9-----------------------------------|
D|--------------------12-12/14-------------------------| 
A|-----------------------------------------------------|
E|-----------------------------------------------------|

And then Louie comes in again with the synth.


e|-----------------------------------------------------|
B|----------------12-13-15-----------------------------|
G|--11/9-11-12-14--------------------------------------|
D|-----------------------------------------------------| 
A|-----------------------------------------------------|
E|-----------------------------------------------------|




Tap to rate this tab
 
# A B C D E F G H I J K L M N O P Q R S T U V W X Y Z