Song name
# A B C D E F G H I J K L M N O P Q R S T U V W X Y Z

Rooney - If It Were Up To Me tab

Help us improve GuitareTab! Take a short survey!
Rooney - If It Were Up To Me from the album "Rooney"
Standard Tuning

1st & 2nd Verse
“She doesn’t have” - play this & repeat 6x:

E |-------------------------------------------------------|
B |-------------------------------------------------------|
G |--------------666666888888-----------------------------|
D |--666666333333666666888888-----------------------------|
A |--666666333333444444666666-----------------------------|
E |--444444111111-----------------------------------------|


Chorus
“Our love - our love” - play this & repeat 2x:

E |-------------------------------------------------------|
B |-------------------------------------------------------|
G |--------------------666666666666888888888888-----------|
D |--66xxx66--33xxx33--666666666666888888888888-----------|
A |--66xxx66--33xxx33--444444444444666666666666-----------|
E |--44xxx44--11xxx11-------------------------------------|


3rd Verse
“I want you to know” - play this & repeat 3x:

E |-------------------------------------------------------|
B |-------------------------------------------------------|
G |--------------666666888888-----------------------------|
D |--666666333333666666888888-----------------------------|
A |--666666333333444444666666-----------------------------|
E |--444444111111-----------------------------------------|


Chorus - 2x

E |-------------------------------------------------------|
B |-------------------------------------------------------|
G |--------------------666666666666888888888888-----------|
D |--66xxx66--33xxx33--666666666666888888888888-----------|
A |--66xxx66--33xxx33--444444444444666666666666-----------|
E |--44xxx44--11xxx11-------------------------------------|


Bridge
“Her mother likes my smile” - play this & repeat 2x:

E |-------------------------------------------------------|
B |-------------------------------------------------------|
G |--------666666------888888-----------------------------|
D |--333333666666888888888888-----------------------------|
A |--333333444444888888666666-----------------------------|
E |--111111------666666-----------------------------------|

“Just to get the answer” - just play this bit:

E |-------------------------------------------------------|
B |-------------------------------------------------------|
G |--------666666-----------------------------------------|
D |--888888888888-----------------------------------------|
A |--888888666666-----------------------------------------|
E |--666666-----------------------------------------------|


“It’s easy - easy” - play this & repeat 4x:

E |-------------------------------------------------------|
B |-------------------------------------------------------|
G |--55--88-----------------------------------------------|
D |--66--88-----------------------------------------------|
A |--66--66-----------------------------------------------|
E |--44---------------------------------------------------|

Solos:

1) Guitar 3x:

E |-------------------------------------------------------|
B |-------------------------------------------------------|
G |--8/10-------------------------------------------------|
D |------10-8h10------------------------------------------|
A |-------------------------------------------------------|
E |-------------------------------------------------------|

   And then 1x:

E |-------------------------------------------------------|
B |-------------------------------------------------------|
G |-------------------------------------------------------|
D |--10-10-10p8\6-----------------------------------------|
A |-------------------------------------------------------|
E |-------------------------------------------------------|

2) Keyboard (arranged for guitar) 2x:

E |-------------------------------------------------------|
B |-11-13-9----------9-11---------------------------------|
G |---------10--8-10--------------------------------------|
D |-------------------------------------------------------|
A |-------------------------------------------------------|
E |-------------------------------------------------------|

   And then 1x:

E |-------------------------------------------------------|
B |--9h11p13 9--------------------------------------------|
G |------------10-----------------------------------------|
D |-------------------------------------------------------|
A |-------------------------------------------------------|
E |-------------------------------------------------------|

   And finally 1x again:

E |-------------------------------------------------------|
B |-11-13-9----------9-11---------------------------------|
G |---------10--8-10--------------------------------------|
D |-------------------------------------------------------|
A |-------------------------------------------------------|
E |-------------------------------------------------------|
Related for If It Were Up To Me tab