Song name
# A B C D E F G H I J K L M N O P Q R S T U V W X Y Z

Rooney - That Girl Has Love tab

Opening
eb|----------2----------2----------0----------0-|
Bb|------3-----3----3-----3----3-----3---3------|
Gg|-o--0---0------0---0------0---0-----0----0---|
Db|-o-------------------------------------------|
Ab|---------------------------------------------|
Eb|---------------------------------------------|

eb|-------0----------0----------0----------0----|
Bb|---3-----3----3-----3----3-----3---3---------|
Gg|-4---4------4---4------3---3-----3----3---o--|
Db|------------------------------------------o--|
Ab|---------------------------------------------|
Eb|---------------------------------------------|

On repeat (muted chords)
Gb                          Ebm      Gb              Egm
I, I don’t know a lot about her, but she, she know a lot about be

Abm                 Db          Gb               Ebm      Abm         
The family seems to love her if what they say is true the friends all shared 
    D          Em
the good times man that girl has love, that girl has I…
Gb                      Ebm          Gb                    Ebm
I, I didn’t have a clue then, that a kiss, could change my whole life again 

    Abm            Db        Gb        Ebm       Abm             Db       
She walked into my room when I was all alone she told me I would date her 
Ebm
from September ‘til December

Chorus:
Gb           Db Ebm            Cb           Gb      Db Ebm             C   
She doesn't know   things will never be the same again   she'll always be 
Gb     Db Em Cb
Sevente-e-en that girl has love


eb|-------2----------2----------0---------0---|
Bb|---3-----3----3-----3----3-----3---3-----3-|
Gg|-0---0------0---0------0---0-----0---0-----|
Db|-------------------------------------------|
Ab|-------------------------------------------|
Eb|-------------------------------------------|

eb|-------0----------0----0-0-0-0-0-0-0-0-0-0-|
Bb|---3-----3----3-----3--3-3-3-3-3-3-3-3-3-3-|
Gg|-4---4------4---4------3-3-3-3-3-3-3-3-3-3-|
Db|-------------------------------------------|
Ab|-------------------------------------------|
Eb|-------------------------------------------|

Gb                         Ebm           Gb          Ebm
She, She kept all the pain inside, while she has got nothing to hide

Abm             Dbm  Gb               Ebm           
At such a young age, she took her own life, now she’s seeing 
                                         Gb?
things that come in her dreams at night, she’s a dreamer


Chorus:
Gb           Db Ebm            Cb           Gb      Db Ebm             C   
She doesn't know   things will never be the same again   she'll always be 
Gb     Db Em Cb
Sevente-e-en that girl has love

break
|--------------------------------------------------------------------------|
|--------------------------------------------------------------------------|
|-----11----11-----------12----12-----------14----14-----------12----12----|
|-/12----12----12--12/14----14-----14-14/16----16----16--16\14----14----14-|
|--------------------------------------------------------------------------|
|--------------------------------------------------------------------------|

|--------------------------------------------------------------------------|
|--------------------------------------------------------------------------|
|-----11----11-----------12----12-----------14----14-----------12----12----|
|-/12----12----12--12/14----14-----14-14/16----16----16--16\14----14----14-|
|--------------------------------------------------------------------------|
|--------------------------------------------------------------------------|


Abm          Db      Gb      Ebm   Abm          Db        Gb      Ebm
That was too real to ever be fake, that was too strong to ever be forgotten
              Db?        
That girl has love

|--------------------------------------------------------------------------|
|--------------------------------------------------------------------------|
|-----11----11-----------12----12-----------14----14-----------12----12----|
|-/12----12----12--12/14----14-----14-14/16----16----16--16\14----14----14-|
|--------------------------------------------------------------------------|
|--------------------------------------------------------------------------|

|--------------------------------------------------------------------------|
|--------------------------------------------------------------------------|
|-----11----11-----------12----12-----------14----14-----------12----12----|
|-/12----12----12--12/14----14-----14-14/16----16----16--16\14----14----14-|
|--------------------------------------------------------------------------|
|--------------------------------------------------------------------------|

Love, love, love, love, love, love, love, love etc. 

Chorus:
Gb           Db Ebm            Cb           Gb      Db Ebm             C   
She doesn't know   things will never be the same again   she'll always be 
Gb     Db Em Cb
Sevente-e-en that girl has love

**Note- on the first 'break', the notes are played with more of a skip than the following one**


Tap to rate this tab
 
# A B C D E F G H I J K L M N O P Q R S T U V W X Y Z