Guitaretab - guitar tabs
Song name
# A B C D E F G H I J K L M N O P Q R S T U V W X Y Z

Rooney - Simply Because tab

-------------------------------------------------------------------------------
			Simply Because - Rooney
-------------------------------------------------------------------------------
Riff and Solo
Tuning: Standard (EADGBe)

  Riff(Keyboards on guitar)
e|---------------------------------------------------------------------------|
B|-------------6-6------------------------------------6-6--------------------|
G|-----5--7---------7---5---7-5-----------------5-7---------7-5---7-6--------|
D|--8---------------------------7------------7----------------------------8--|
A|---------------------------------------------------------------------------|
E|---------------------------------------------------------------------------|

e|---------------------------------------------------------------------------|
B|---------------6-6-------------------------------------6-6-------9---------|
G|------5-7------------8---6--8---6---------------6--8--------8--------8-----|
D|---8-------------------------------8----------8----------------------------|
A|---------------------------------------------------------------------------|
E|---------------------------------------------------------------------------|

e|---------------------------------------------------------------------------|
B|---------------------------------------------------------------------------|
G|---------------------------------------------------------------------------|
D|--3--- 5\---7---3---5\--7--10--7-------3-5\---7--3--5\---7-----------------|
A|--1---3\---5---1---3\--5---8--5-------1-3\---5--1--3\---5--3--------------|
E|------------------------------------------------------------1--------------|


SOLO

|-2b3------------------------------------------------------------------|
|-----3b-3b-3b-3b-3b-3b------------------------------------------------|
|-----3b-3b-3b-3b-3b-3b---3h5p3------------------------10--------------|
|-----3b-3b-3b-3b-3b-3b----------5-------------\8-10h12-------10h12----|
|-------------------------------------5\-10----\8-------------13-------|
|-------------------------------------------10-------------------------|

[ Tab from: http://www.guitaretab.com/r/rooney/59740.html ]
                                                                     ~~
|-------------------------------------------------------------------------|
|------------11-10------10----------------------------11/-------11--------|
|-10h12p10---------12------12--10--12--10/------------12/-------12--10----|
|-------------------------------------------8-10/-12--------12------------|
|-------------------------------------------------------------------------|
|-------------------------------------------------------------------------|


                                                                                     
|--------------------------------------------------------------------------|
|------------------------13B-(15)-(15)--13B-(15)-(15)----------------------|
|-14b---14b---14b----------------------------------------------------------|
|--------------------------------------------------------------------------|
|--------------------------------------------------------------------------|
|--------------------------------------------------------------------------|


|-------------------------------------------------------------------------|
|-13S=15-----18~~~~~~~~---------------------------------------------------|
|-------------------------------------------------------------------------|
|-------------------------------------------------------------------------|
|-------------------------------------------------------------------------|
|-------------------------------------------------------------------------|






|-----------------------------------------|
|-18-18-18-18-18-18-18-16p--18p-15--18/---|
|-----------------------------------------|
|-----------------------------------------|
|-----------------------------------------|
|-----------------------------------------|


|--13-------------13-------------13----------------13---------------------|
|-----15p-13--------15p-13-----------15p-13----------15p-13---------------|
|-------------------------------------------------------------------------|
|-------------------------------------------------------------------------|
|-------------------------------------------------------------------------|
|-------------------------------------------------------------------------|


|-15---------16----------------------------------------------|
|----16---------16------16-----15-15-15--13--15--------------|
|-------15---------15------15--15-15-15--15------15/---------|
|-------------------------------------------------------8----|
|-------------------------------------------------------8----|
|-------------------------------------------------------6----|



| /  slide up
| \  slide down
| h  hammer-on
| p  pull-off
| ~  vibrato
| +  harmonic
| x  Mute note
  B   Full bend
  b   half bend
==============================================================================
Related for Simply Because tab