Song name
# A B C D E F G H I J K L M N O P Q R S T U V W X Y Z

Rooney - Im Shakin tab

Rooney	  : I’m Shakin
Tabbed by : Hariz05 (myspace.com/hariz05)
Tunning	  : Standard(EADGBe)

----------------------------------------------------------------------------
READ NOTE FIRST!

This tab is ear-transcribe, meaning I tabbed it out the way I hear it.
I can say its 90% accurate.

INTRO	 : Note that Guitar 3 plays for the RIFF as well.
RIFF 	 : I tabbed out Guitar 2 the way I hear it, I think its 90% correct.
           In certain track, the riff only plays once.
Palm Mute: Note tht PALM MUTE are used in [VERSE 2] and [BRIDGE] part.

Last but not least, PLEASE RATE!
----------------------------------------------------------------------------

[INTRO]

Guitar 3 [Keyboard]
e|-----6------|-----8-----|x2
B|-6-8-----x4-|-8-9-----x4|
G|-------6----|-------8---|
D|------------|-----------|
A|------------|-----------|
E|------------|-----------|

Guitar 1
e|------------------------|
B|------------------------|
G|------------------------|
D|----6*------------------|
A|-8*-4*-6*---------------|
E|-6*----4*---------------|

Guitar 2
e|------------------------|
B|-4/13-------------------|
G|------------------------|
D|------------------------|
A|------------------------|
E|------------------------|

[RIFF]

Guitar 3
e|-----6------|-----8------|-----6------|-----8~-|
B|-6-8-----x4-|-8-9-----x4-|-6-8-----x2-|-8-9----|
G|-------6----|-------8----|-------6----|--------|
D|------------|------------|------------|--------|
A|------------|------------|------------|--------|
E|------------|------------|------------|--------|

Guitar 1
e|---------------------------------------------------------------------|x2
B|---------------------------------------------------------------------|
G|----------66666666---------------------------------------------------|
D|-88888888-66666666-66666666666666666---------------------------------|
A|-88888888-44444444-66666666666666666---------------------------------|
E|-66666666----------44444444444444444---------------------------------|

2nd time Guitar 1 ends with this:
e|---------------------------------------------------------------------|
A|---------------------------------------------------------------------|
D|-66666666-88888888---------------------------------------------------|
G|-66666666-88888888---------------------------------------------------|
B|-44444444-66666666---------------------------------------------------|
E|---------------------------------------------------------------------|

Guitar 2                                                                  
e|---------------------------------------------------------------------|x2
B|---------------------------------------------------------------------|
G|-17-17-1717-1717-17-17--17/20/17-------20-17-15—-17-17-1717-15*-1515-|
D|---------------------------------18-15—------------------------------|
A|-15-15-1515-1515-15-15--15/18/15-------18-15-13--15-15-1515-13*-1313-|
E|---------------------------------16-13-------------------------------|

[VERSE]

Guitar 1
e|--------------------------------------------------------|x2
B|-----------------------------8-8-8-XX-8-8-8-8-8-8-XX-88-|
G|-6-6-6-XX-66-X---------------8-8-8-XX-8-8-8-8-8-8-XX-88-|
D|-6-6-6-XX-66-X-8-8-8-XX-88-X-8-8-8-XX-8-8-8-8-8-8-XX-88-|
A|-4-4-4-XX-44-X-8-8-8-XX-88-X-6-6-6-XX-6-6-6-6-6-6-XX-66-|
E|---------------6-6-6-XX-66-X----------------------------|
  “I forgot to what it feels like, to feel normal...”

Guitar 2			
e|----------11-8-|
B|-----8-11------|
G|8-10-----------|
D|---------------|
A|---------------|
E|---------------|

continues...

Guitar 1
e|--------------------------------------------------------|x2
B|-----------------------------8-8-8-XX-8-8-8-8-8-8-XX-88-|
G|-6-6-6-XX-66-X---------------8-8-8-XX-8-8-8-8-8-8-XX-88-|
D|-6-6-6-XX-66-X-8-8-8-XX-88-X-8-8-8-XX-8-8-8-8-8-8-XX-88-|
A|-4-4-4-XX-44-X-8-8-8-XX-88-X-6-6-6-XX-6-6-6-6-6-6-XX-66-|
E|---------------6-6-6-XX-66-X----------------------------|
  “I wake up, in so much spit and sweat...”

[PRE-CHORUS]

Guitar 1
e|------|
B|------|
G|------|
D|-8-10-|
A|-8-10-|
E|-6-8--|
  “Now I’m...”

Guitar 2
e|------|
B|------|
G|------|
D|-8-10-|
A|------|
E|------|

[CHORUS]

Guitar 1
e|-------------------------------------| x2
B|-------------------------------------|
G|------------------6666666666666666-88|
D|-6666666666666666-6666666666666666-88|
A|-6666666666666666-4444444444444444-66|
E|-4444444444444444--------------------|
  “Sha Sha Shakin...”

Repeat [RIFF] then [VERSE]

[VERSE 2]

Guitar 1
e|---------------------------------|x2
B|---------------------------------|
G|-------------88------------88----|
A|-------------88------------88-x3-|
D|-------------66------------66----|
E|---------------------------------|
“The next day came but not a beam of light...”

Guitar 2 [PALM MUTE]
e|----------------|----------------|x2
B|----------------|----------------|
G|-13-12-13-15-13-|-11-10-8-6-8----|
D|----------------|-------------x3-|
A|-11-10-11-13-11-|--9—-8-6-4-6----|
E|----------------|----------------|
PM .. .. .. .. ..   .. .. . . .

Repeat [PRE-CHORUS] then [CHORUS]

continues...

e|-------------------|
B|-------------------|
G|----------88888888-|
D|-88888888-88888888-|
A|-88888888-66666666-|
E|-66666666----------|
   “Sha Sha Shakin”

[BRIDGE]

Guitar 1
e|-------------------------------------------------------------|
B|-------------------------------------------------------------|
G|-----------------------------------66------------------------|
D|-6666666666666666-8888888888888888-66-6666666666666666-8-8-88|
A|-6666666666666666-8888888888888888-44-6666666666666666-8-8-88|
E|-4444444444444444-6666666666666666----4444444444444444-6-6-66|
PM ................ ................    ................
   “I’m supposed to fell better. . .”  “This nightmare...”

Guitar 2
e|------------------------|x7
B|------------------------|
G|-8-10-------------------|
D|------8-10-6h8-8-10-----|
A|------------------------|
E|------------------------|
PM . .. . .. . . . .

continues...

Guitar 1
e|---------------------------------------------------------------------------|
B|---------------------------------------------------------------------------|
G|-5-555-55-6-6-66-5-555-55-5-5-55-5-555-55-6-6-66-5-555-55-66666666-88888888|
D|-5-555-55-6-6-66-5-555-55-5-5-55-5-555-55-6-6-66-3-555-55-66666666-88888888|
A|-3-333-33-4-4-44-3-333-33-1-1-11-3-333-33-4-4-44-3-333-33-44444444-66666666|
E|---------------------------------------------------------------------------|
          “I am holding on, I am holding on...”

Guitar 2 plays this till the end:
e|-------------------13—11|
B|-11-13------------------|
G|-------12-13-10-12------|
D|------------------------|
A|------------------------|
E|------------------------|

Repeat: [CHORUS] till the end.

-End-

I'm pretty sure there are mistakes in the tab. 
So don't hesitate to correct me, anything wrong just PM me. 
Tap to rate this tab
# A B C D E F G H I J K L M N O P Q R S T U V W X Y Z