Song name
# A B C D E F G H I J K L M N O P Q R S T U V W X Y Z

Rooney - The Floor tab

Rooney
The Floor
Tuning: Standard
Transcribed by Soch Hean

Intro Guitar Riff:
|---------------------------|
|------------9-9-7----------|
|-6-----------------6--8----|
|----8--6-8-----------------|
|---------------------------|
|---------------------------| (x4)

|-------------------------------------|
|-------------------------------------|
|-5--6-6--x-x-x-x-----------x-x-x-x---|
|-5--6-6--x-x-x-x-6-6--8-8--x-x-x-x---|
|-3--4-4--x-x-x-x-6-6--8-8--x-x-x-x---|
|-----------------4-4--6-6--x-x-x-x---| (x2)

Verse:
|----------------------|
|----6-6---------6-6---|
|-5--6-6---------6-6---|
|-5--6-6------6--8-8---|
|-3--4-4------6--8-8---|
|-------------4--6-6---| (x4)

Bridge:
|---------------------------|
|---------------------------|
|-6-------------------------|
|-6-------6-------8---------|
|-4-(x8)--6-------8---------|
|---------4-(x8)--6-(x16)---| (x2)

Chorus:
|-----------|
|-----------|
|-3---------|
|-3---------|
|-1-(x16)---|
|-----------| (x4)

Riff:
|-------------------------------------|
|-------------------------------------|
|-5--6-6--x-x-x-x-----------x-x-x-x---|
|-5--6-6--x-x-x-x-6-6--8-8--x-x-x-x---|
|-3--4-4--x-x-x-x-6-6--8-8--x-x-x-x---|
|-----------------4-4--6-6--x-x-x-x---| (x2)

Verse 2:
|----------------------|
|----6-6---------6-6---|
|-5--6-6---------6-6---|
|-5--6-6------6--8-8---|
|-3--4-4------6--8-8---|
|-------------4--6-6---| (x4)

Bridge:
|---------------------------|
|---------------------------|
|-6-------------------------|
|-6-------6-------8---------|
|-4-(x8)--6-------8---------|
|---------4-(x8)--6-(x16)---| (x2)

Chorus:
|-----------|
|-----------|
|-3---------|
|-3---------|
|-1-(x16)---|
|-----------| (x4)

Outro:
|---------------------|
|-11-------11---------|
|-13b15~------10~-----|
|---------------------|
|---------------------|
|---------------------| (x3)

|---------------------|
|-11------------------|
|-13b15~--------------|
|---------------------|
|---------------------|
|---------------------| (Repeat this bend)

|---------|
|---------|
|-5---6\--|
|-x---x---|
|-3---4\--|
|---------|
Tap to rate this tab
 
# A B C D E F G H I J K L M N O P Q R S T U V W X Y Z