Song name
# A B C D E F G H I J K L M N O P Q R S T U V W X Y Z

Rooster Teeth - Red Vs Blue tab

                   l   ll   l   llllll  ll    llllll 
                   l   l l  l     l     l l   l    l
                   l   l  l l     l     ll    l    l
                   l   l   ll     l     l l   l    l
                   l   l    l     l     l  l  llllll

 
                 e-|------0-------0-----|
                 B-|------1-------1-----|
                 G-|------2-------2-----|  X2
                 D-|------2-------2-----|
                 A-|--0------0---------0|
                 E-|------------0----0--|

                  
                 e-|------------------------0|
                 B-|--------0-0----0-0-----0-|   THANKS FOR USING!!!   
                 G-|--------2-2----1-1----0--|
                 D-|--------3-3----2-2---0---| Please! Check out my youtube
                 A-|--------3-3----2-2--0----|                       
                 E-|--0-1-------0------0-----|      Youtube: K1llerKlan
Tap to rate this tab
 
# A B C D E F G H I J K L M N O P Q R S T U V W X Y Z