Song name
# A B C D E F G H I J K L M N O P Q R S T U V W X Y Z

Rooster Teeth - Agent Tex tab

e-------------0-------------------------0-----------------|
B-------------0-------------------------0-----------------|
G-------------0-------------------------0-----------------|
D-------------2-------------------------2-----------------|
A-------------2-------------------------2-----------------|
E--0--3--0 ---0----0---3---0----3---0---0-----------------|


e-------------------------------------------------------|    x4
B-------------------------------------------------------|
G-------------------------------------------------------|
D-------------------------------------------------------|
A--------2--------2-0-2-3-2-----------------------------|
E--0-2/3----0-2/3-----------3-2-0-----------------------|
Tap to rate this tab
 
# A B C D E F G H I J K L M N O P Q R S T U V W X Y Z