Song name
# A B C D E F G H I J K L M N O P Q R S T U V W X Y Z

Rooster - Staring At The Sun tab

 Staring at the Sun
 By
 Tv on the Radio

Bass Guitar

intro/verse/chorus:

G|----------------------------------|
D|----------------------------------|
A|6-6-6-6--6-6-6-6------------------|
E|-----------------3-3-3-3--3-3-3-3-|

G|----------------------------------|
D|----------------------------------|
A|----------------------------------|
E|1-1-1-1--1-1-1-1-3-3-3-3--3-3-3-3-|

Lead Guitar

Pre-chorus:

   (Tremelo Pick)
e|-11~~~~~~~~~~~~~~~~~~~~~~~~~~~~~~-|
B|----------------------------------|
G|----------------------------------|
D|----------------------------------|
A|----------------------------------|
E|----------------------------------|

Chorus:

   (Tremelo Pick)
e|-11~~~~~~~------------------------------|
B|----------------------------------------|
G|----------12~~~~~~~-10~~~~~~~-12~~~~~~~-|
D|----------------------------------------|
A|----------------------------------------|
E|----------------------------------------|

Post-Chorus:

(Tremelo Pick)
e|----------------------------------|
B|-12~~~~~~~~~~~~-------------------|
G|----------------------------------|
D|----------------------------------|
A|----------------------------------|
E|----------------------------------|

Outro:

   (Tremelo Pick)
e|----------------------------------|
B|----------------------------------|
G|-12~~~~~~~~~~~~~~~~~~~~~~~~~~~~~~-|
D|----------------------------------|
A|----------------------------------|
E|----------------------------------|

e|----------------------------------|
B|-11~~~~~~~~~~~~~~~~~~~~~~~~~~~~~~-|
G|----------------------------------|
D|----------------------------------|
A|----------------------------------|
E|----------------------------------|

Rhythm Guitar:

Chorus:

e|----------------------------------|
B|----------------------------------|
G|8-8-8-8--8-8-8-8------------------|
D|8-8-8-8--8-8-8-8-5-5-5-5--5-5-5-5-|
A|6-6-6-6--6-6-6-6-5-5-5-5--5-5-5-5-|
E|-----------------3-3-3-3--3-3-3-3-|

e|----------------------------------|
B|----------------------------------|
G|----------------------------------|
D|3-3-3-3--3-3-3-3-5-5-5-5--5-5-5-5-|
A|3-3-3-3--3-3-3-3-5-5-5-5--5-5-5-5-|
E|1-1-1-1--1-1-1-1-3-3-3-3--3-3-3-3-|
Tap to rate this tab
 
# A B C D E F G H I J K L M N O P Q R S T U V W X Y Z