Song name
# A B C D E F G H I J K L M N O P Q R S T U V W X Y Z

Rooster - Come Get Some tab

-------------------------------------------------------------------------------
			     COME GET SOME - Rooster
-------------------------------------------------------------------------------
Tabbed by: Red_Lion
Email: IAmIcarus@hotmail.co.uk

Tuning: EADGBE (Standard) 

N.B. Just the intro, will possibly tab the rest at a later date. 

Update #1: Corrected minor typo.

Intro:
e|------------------------------------3--------------------------------------|
B|- ----------------------------------3--------------------------------------|
G|-5b(7)r5p3-----------------0--------3------5b(7)r5p3-----------------------|
D|-----------5-3-------------x-----5-------------------5-3-------------------|
A|---------------3h4p3-------3-----5------------------------3h4p3---3--------|
E|---------------------(3)-6---6p3--------------------------------6---6b-----|

************************************

| /   slide up
| \   slide down
| h   hammer-on
| p   pull-off
| ~   vibrato
| +   harmonic
| x   Mute note
| b   Bend
| r   Release
| pb  Pre-bend
| pbr Pre-bend release
| brb Bend release bend


i
Tap to rate this tab
# A B C D E F G H I J K L M N O P Q R S T U V W X Y Z