Song name
# A B C D E F G H I J K L M N O P Q R S T U V W X Y Z

Rooster - Standing In Line tab

Rooster
Standing In Line
Tuning: Standard
Transcribed by Soch Hean

Intro: 
|--------------------4----4----4----------------|
|------------------x-4--x-4--x-4---x-x----------|
|-3--x-3-x-3--x-3--x-6--x-6--x-5---x-x-6-6------|
|-3--x-3-x-3--x-3--x-6--x-6--x-6---x-x-6-6------|
|-1--x-1-x-1--x-1--x-4--x-4--x-6---x-x-4-4--3---|
|------------------------------4----------------|

Verse:
|--------------------4----4----4----------------|
|------------------x-4--x-4--x-4---x-x----------|
|-3--x-3-x-3--x-3--x-6--x-6--x-5---x-x-6-6------|
|-3--x-3-x-3--x-3--x-6--x-6--x-6---x-x-6-6------|
|-1--x-1-x-1--x-1--x-4--x-4--x-6---x-x-4-4--3---|
|------------------------------4----------------|

|--------------------4----4----4----------------|
|------------------x-4--x-4--x-4----------------|
|-3--x-3-x-3--x-3--x-6--x-6--x-5----------------|
|-3--x-3-x-3--x-3--x-6--x-6--x-6----x-6h8-6~----|
|-1--x-1-x-1--x-1--x-4--x-4--x-6----x-----------|
|------------------------------4----------------|


Bridge:
Cm    B
Cm    B  G#


Chorus:
|-6--x-6--x-4--x-4--x-6--x-6----2-2-2--4-4-4----|
|-6--x-6--x-4--x-4--x-6--x-6--x-2-2-2--4-4-4----|
|-7--x-7--x-5--x-5--x-8--x-8--x-3-3-3--5-5-5----|
|-8--x-8--x-6--x-6--x-8--x-8--x-4-4-4--6-6-6----|
|-8--x-8--x-6--x-6--x-6--x-6--x-4-4-4--6-6-6----|
|-6--x-6--x-4--x-4--------------2-2-2--4-4-4----|

|-6--x-6--x-4--x-4--x-6--x-6----2-2-2--4-4-4----|
|-6--x-6--x-4--x-4--x-6--x-6--x-2-2-2--4-4-4----|
|-7--x-7--x-5--x-5--x-8--x-8--x-3-3-3--5-5-5----|
|-8--x-8--x-6--x-6--x-8--x-8--x-4-4-4--6-6-6----|
|-8--x-8--x-6--x-6--x-6--x-6--x-4-4-4--6-6-6----|
|-6--x-6--x-4--x-4--------------2-2-2--4-4-4----|

|-4--------6----------6--4--6---------6-6--4--6--------|
|-4--------6----------6--4--6---------6-6--4--6--x-x---|
|-6--------8----------7--5--7--x-x-x--7-7--6--7--x-x---|
|-6--------8----------8--6--8--x-x-x--8-8--6--8--x-x---|
|-4--------6----------8--6--8--x-x-x--8-8--4--8--x-x---|
|-----------------4---6--4--6--x-x-x--6-6-----6--------|

|-4--------6----|
|-4--------6----|
|-6--------8----|
|-6--------8----|
|-4--------6----|
|---------------|

Guitar Riff:
|--------------------------------|
|--------------------------------|
|--------------------------------|
|-3------------------------------|
|----6-4-6--4b4.5----------------|
|------------------6-4-----------|

Verse 2:
|--------------------4----4----4----------------|
|------------------x-4--x-4--x-4---x-x----------|
|-3--x-3-x-3--x-3--x-6--x-6--x-5---x-x-6-6------|
|-3--x-3-x-3--x-3--x-6--x-6--x-6---x-x-6-6------|
|-1--x-1-x-1--x-1--x-4--x-4--x-6---x-x-4-4--3---|
|------------------------------4----------------|

|--------------------4----4----4----------------|
|------------------x-4--x-4--x-4----------------|
|-3--x-3-x-3--x-3--x-6--x-6--x-5----------------|
|-3--x-3-x-3--x-3--x-6--x-6--x-6----x-6h8-6~----|
|-1--x-1-x-1--x-1--x-4--x-4--x-6----x-----------|
|------------------------------4----------------|


Bridge:
Cm    B
Cm    B  G#


Chorus:
|-6--x-6--x-4--x-4--x-6--x-6----2-2-2--4-4-4----|
|-6--x-6--x-4--x-4--x-6--x-6--x-2-2-2--4-4-4----|
|-7--x-7--x-5--x-5--x-8--x-8--x-3-3-3--5-5-5----|
|-8--x-8--x-6--x-6--x-8--x-8--x-4-4-4--6-6-6----|
|-8--x-8--x-6--x-6--x-6--x-6--x-4-4-4--6-6-6----|
|-6--x-6--x-4--x-4--------------2-2-2--4-4-4----|

|-6--x-6--x-4--x-4--x-6--x-6----2-2-2--4-4-4----|
|-6--x-6--x-4--x-4--x-6--x-6--x-2-2-2--4-4-4----|
|-7--x-7--x-5--x-5--x-8--x-8--x-3-3-3--5-5-5----|
|-8--x-8--x-6--x-6--x-8--x-8--x-4-4-4--6-6-6----|
|-8--x-8--x-6--x-6--x-6--x-6--x-4-4-4--6-6-6----|
|-6--x-6--x-4--x-4--------------2-2-2--4-4-4----|

|-4--------6----------6--4--6---------6-6--4--6--------|
|-4--------6----------6--4--6---------6-6--4--6--x-x---|
|-6--------8----------7--5--7--x-x-x--7-7--6--7--x-x---|
|-6--------8----------8--6--8--x-x-x--8-8--6--8--x-x---|
|-4--------6----------8--6--8--x-x-x--8-8--4--8--x-x---|
|-----------------4---6--4--6--x-x-x--6-6-----6--------|

|-4--------6----|
|-4--------6----|
|-6--------8----|
|-6--------8----|
|-4--------6----|
|---------------|


Guitar Riff:
|----------------------------|
|-------------6b6.5----------|
|-10s=8--6-8--6b6.5----------|
|--------------------8--6~---|
|----------------------------|
|----------------------------|


Guitar Solo: (2:14)
|----------------------------------------------|
|--------6b6.5---------------------------6b6.5-|
|------x-6b6.5----------8b10-8-6---8p6---6b6.5-|
|--6h8-x--------8-6-8~-----------8-----8-------|
|----------------------------------------------|
|----------------------------------------------|

|------------------16--------16--------16--------------------------|
|-----------16b18-----16b18-----16b18-----16b18rp14----16-14-------|
|-8--6~s==------------------------------------------15-------15~---|
|------------------------------------------------------------------|
|------------------------------------------------------------------|
|------------------------------------------------------------------|

|-------------------18----18---------------------------------------|
|-21b23=-21pb23-21-----21----21--21b23=~~~~~~~~-21b23-21-20-18~\---|
|------------------------------------------------------------------|
|------------------------------------------------------------------|
|------------------------------------------------------------------|
|------------------------------------------------------------------|

|-----------------------------|
|-------14b14.5=--------------|
|-13h15-----------15-13h15~---|
|-----------------------------|
|-----------------------------|
|-----------------------------|


Bridge:
Cm    B
Cm    B  G#

[Chorus]


Chords:
Cm:   x35543
B:    x2444x
G#:   466544

Legend:
r - release
pb - prebend
b - bend
p - pulloff
h - hammeron
s - slide
Tap to rate this tab
 
# A B C D E F G H I J K L M N O P Q R S T U V W X Y Z