Song name
# A B C D E F G H I J K L M N O P Q R S T U V W X Y Z

Rootlifter - Eternally tab

Help us improve GuitareTab! Take a short survey!
title: eternally 
artist: rootlifter
album: not yet established

INTRO/VERSE:

E:-------------------------------------------------
B:-------------------------------------------------
G:-------------------------------------------------
D:4--4-4-4-4/7--7-7-7-7----------------------------
A:2--2-2-2-2/5--5-5-5-5-7--7-7-7-7/10--10-10-10-10-
D:----------------------5--5-5-5-5/8---8--8--8--8--

CHORUS:

E:0---------0-----------
B:1---------3-----------
G:2-X5-THEN-0-X5-REPEAT-
D:2---------2-----------
A:0---------3-----------
D:0---------0-----------

INTERLUDE PART 1:

E:------------------------------
B:------------------------------
G:----------------7/9-0---------  X2
D:2-2-2-2-2-2-2-2-X/X-0-9-9-9-9-
A:2-2-2-2-2-2-2-2-5/7-0-9-9-9-9-
D:0-0-0-0-0-0-0-0-----0-7-7-7-7-

INTERLUDE PART 2:

E:-----------------------------------------------------------   -----
B:---------------------------------------------------------X2 THEN---
G:7/9-9-9/10-10/12-12-12/14---17-14-13--13-13-17-14-13--13-13   -----
D:X/X-X-X/X-X-X/-X--X--X/-X----X--X--X---X--X--X--X--X---X--X   9-9-9
A:5/7-7-7/8-8-8/10-10-10/12---15-12-11--11-11-15-12-11--11-11   9-9-9
D:-----------------------------------------------------------   7-7-7

LYRICS:

madness surrounds us all,
our lives laced with flames,
corrosive mutiliation,
everyone's to blame,
this world could be so beautiful,
we take it for granted,
with humans, the dominant,
we only want to see the end....

but god created you,
dressed in white,
if he created a world without you,
he created the world without a light....

sacrifices have been made,
the glorified should have stayed,
they just wasted their time,
through our puddles of blood they'll shine,
this world could be so beautiful, we take it for granted,
with humans, the dominant,
we only want to see the end....

but god created you,
dressed in white,
if he created a world without you,
he created a world without a light,
but god created you,
dressed in white,
if it wasn't for you,
i'd be living without any life....

if you are a dream,
i wish i could sleep eternally....
Related for Eternally tab