Song name
# A B C D E F G H I J K L M N O P Q R S T U V W X Y Z

Rootlifter - Dwell tab

Help us improve GuitareTab! Take a short survey!
title: dwell
artist: rootlifter
album: not yet established
tabbed by: sean carver

INTRO/VERSE:
e:---------------------------
B:---------------------------
G:0-6-6-6-10----0-6-6-6-0-10-   heavy distortion
D:0-6-6-6-x-----0-6-6-6-0-x--
A:0-6-6-6-8-----0-6-6-6-0-8--
E:0-6-6-6-------0-6-6-6-0----

BRIDGE:
e:------------------------------------
B:------------0-0-0-0-0-0-------------
G:3-3-3-3-3-3-0-0-0-0-0-0-3-3-3-3-3-3-
D:3-3-3-3-3-3-2-2-2-2-2-2-3-3-3-3-3-3-
A:3-3-3-3-3-3-2-2-2-2-2-2-1-1-1-1-1-1-
E:1-1-1-1-1-1-0-0-0-0-0-0-1-1-1-1-1-1-

CHORUS:
e:----------------------------------------------
B:--------0-0-0-0-0-0---------6-6-6-------------
G:3-2-0---2-2-2-2-2-2-0-2-3---6-6-6-4/5-5-5-5-5-
D:3-2-0---0-0-0-0-0-0-0-2-3---6-6-6-4/5-5-5-5-5-
A:3-2-0---3-3-3-3-3-3-0-2-3---4-4-4-4/5-5-5-5-5-
E:3-2-0---1-1-1-1-1-1-0-2-3---------4/5-5-5-5-5-

INTERLUDE:
e:--------------------------------------
B:-------------------------0--0-0-0-0-0-
G:6-6-6-6-10/11\6-2-2-2-2--0--0-2-2-2-2-
D:6-6-6-6-x-/x-\x-2-2-2-2--2--2-0-0-0-0-
A:6-6-6-6-8-/9-\4-2-2-2-2--2--2-3-3-3-3-
E:6-6-6-6---------2-2-2-2--0--0-1-1-1-1-

LYRICS:

im failing,
im diseased,
im praying,
God please...

the pressure,
the weight,
im collapsing,
im raped...

you're laughing,
full of pride,
fucking smile,
fucking die...

i need you,
i was there for you,
abandon me,
to dwell in self-pity...

i must stay strong,
so fuck you,
and so long...

EVEN CONCRETE ANGELS LOSE THEIR WINGS...
EVEN CONCRETE ANGELS LOSE THEIR WINGS...
EVEN CONCRETE ANGELS LOSE THEIR WINGS...


by sean carver
Related for Dwell tab