Song name
# A B C D E F G H I J K L M N O P Q R S T U V W X Y Z

Rootlifter - Llama tab

artist: Rootlifter
title: Llama
album: not yet established
music and lyrics by: sean carver

INTERLUDE/INTRO:

e:0-0/0--2--0-
b:1-1/3--3--0-
g:0-0/0--2--0-
d:2-2/4--0--2-
a:3-3/5-----2-
e:----------0-

VERSE:

e:0-0-0--3-3-3--2-2-2-2-2-2-
b:0-0-0--3-3-3--3-3-3-3-3-3-
g:1-1-1--0-0-0--2-2-2-2-2-2-
d:2-2-2--0-0-0--0-0-0-0-0-0-
a:2-2-2--0-0-0--------------
e:0-0-0--3-3-3--------------

CHORUS:

e:0-0-0-0-0-0--0-0-0-0-0-0------------------0-
b:4-4-4-4-4-4--0-0-0-0-0-0------------------1-
g:5-5-5-5-5-5--2-2-2-2-2-2- x4 then end on -0-
d:5-5-5-5-5-5--3-3-3-3-3-3------------------2-
a:3-3-3-3-3-3--3-3-3-3-3-3------------------3-
e:-------------1-1-1-1-1-1--------------------

SMALL INTERLUDE SOLO:

e:-------------------------------------------
b:-----------------8*------------------------    * = hold
g:12*-------10-7/9----6h7h6--4h5h4-----------
d:----10/12------------------------3*-2-0----
a:-----------------------------------------2-
e:-------------------------------------------

LYRICS:

rip the pages,
never remind yourself again,
it's not the hole,
you're supposed to fall in,
so fall away...

cause you made me alive,
you made me alive...

just erase,
what makes you fall apart,
all those fucken demons,
that refuse to heal your heart,
so heal upstairs...

cause you made me alive,
you made me alive...
                                               3RD DAY = LLAMA...
Llama stay away,
don't vial our time,
we were put here,
to feel alive,
so fall away...

cause you made me alive,
you made me alive...


by sean carver
Tap to rate this tab
# A B C D E F G H I J K L M N O P Q R S T U V W X Y Z