Song name
# A B C D E F G H I J K L M N O P Q R S T U V W X Y Z

Roots - Aint Sayin Nothin New tab

-------------------------------------------------------------------------------
			     Ain't Sayin' Nothin' New - The Roots
-------------------------------------------------------------------------------
Tabbed by: Kent

Off of "Things Fall Apart"


the individual notes are sort of guidelines, aside from the essential pull-offs.
just sort of strum it:

main part
e|-4p2-2--0--4p2-4p2-2--2---7/5--------------------------------------------------|
B|-2------0------2------3------repeat-over-and-over------------------------------|
G|-2------1------2------4-4------------------------------------------------------|
D|-4----4-2-2----4----4-4--------------------------------------------------------|
A|----------------------2--------------------------------------------------------|
E|-------------------------------------------------------------------------------|

non-main part        (2X)
e|-6-6-----6-6-----7-7-----7-7-----6-6-----6-6-----7-7-----9-9---------------|
B|-5-5-----5-5-----5-5-----5-5-----5-5-----5-5-----5-5-----5-5---------------|
G|---------------------------------------------------------------------------|
D|---------------------------------------------------------------------------|
A|---------------------------------------------------------------------------|
E|---------------------------------------------------------------------------|

outro
e|-6-6-------------7-7-------------6-6-------------7-7-----------------------|
B|-5-5-------------5-5-------------5-5-------------5-5-----------------------|
G|---------------------------------------------------------------------------|
D|---------------------------------------------------------------------------|
A|---------------------------------------------------------------------------|
E|---------------------------------------------------------------------------|


| /  slide up
| \  slide down
| h  hammer-on
| p  pull-off
| ~  vibrato
| +  harmonic
| x  Mute note
===============================================================================
Tap to rate this tab
# A B C D E F G H I J K L M N O P Q R S T U V W X Y Z