Guitaretab - guitar tabs
Song name
# A B C D E F G H I J K L M N O P Q R S T U V W X Y Z

Roper - Youre Still The One tab

Song - You're Still The One
Artist - Roper
Album - Brace Yourself For The Mediocre
Tuning: E-A-D-G-B-E
E-mail: SirPlorkenblog@gmail.com

http://www.roperisdumb.com/ - Roper Homepage

E-mail me with any corrections! Keep in mind this is my first tab. I picked a
Roper song because nobody's tabbed them yet. No solo, not that great of an ear yet.


9h11 = Hammer-on
9/11 = Slide
2^ = Bend

Intro
E---------------------------------------------------|
B---------------------------------------------------|
G-------------------------------11--9-----9h11---9--|
D-------7--9--9/11--9----------------9--------------|
A---7-----------------------------------------------|
E---------------------------------------------------|

Verse
E---------------------------------------------------------------------|
B---------------------------------------------------------------------|
G---------------------------------------------------------------------|
D-2-2-2-2-2-2-2----6-6-6-6-6-6-6------7-7-7-7-7-7-7----9-9-9-9-9-9-9--|
A-2-2-2-2-2-2-2----6-6-6-6-6-6-6------7-7-7-7-7-7-7----9-9-9-9-9-9-9--|
E-0-0-0-0-0-0-0----4-4-4-4-4-4-4------5-5-5-5-5-5-5----7-7-7-7-7-7-7--|

Pre-Chorus

E--------------------------------------------------|
B--------------------------------------------------|
G--------------------------------------------------|
D-2-2-2-2-2-2-2----7-7-7-7-7-7-7----9-9-9-9-9-9-9--|
A-2-2-2-2-2-2-2----7-7-7-7-7-7-7----9-9-9-9-9-9-9--|
E-0-0-0-0-0-0-0----5-5-5-5-5-5-5----7-7-7-7-7-7-7--|
[ Tab from: http://www.guitaretab.com/r/roper/141883.html ]
Chorus

E------------------------------------------------------------------------------|
B------------------------------------------------------------------------------|
G------------------------------------------------------------------------------|
D-2-2-2-2-2-2-2----7-7-7-7-7-7-7----4-4-4-4-4-4-4---------------9-9-9-9-9-9-9--|
A-2-2-2-2-2-2-2----7-7-7-7-7-7-7----4-4-4-4-4-4-4---------------9-9-9-9-9-9-9--|
E-0-0-0-0-0-0-0----5-5-5-5-5-5-5----2-2-2-2-2-2-2---------------7-7-7-7-7-7-7--|

Solo

E---------------------------------------------------------------------|
B---------------------------------------------------------------------|
G---------------------------------------------------------------------|
D-2-2-2-2-2-2-2----6-6-6-6-6-6-6------7-7-7-7-7-7-7----9-9-9-9-9-9-9--|
A-2-2-2-2-2-2-2----6-6-6-6-6-6-6------7-7-7-7-7-7-7----9-9-9-9-9-9-9--|
E-0-0-0-0-0-0-0----4-4-4-4-4-4-4------5-5-5-5-5-5-5----7-7-7-7-7-7-7--|

Outro

E----------------------------------------------------------------------------|
B----------------------------------------------------------------------------|
G----------------------------------------------------------------------------|
D---2------------------------------------------------------------------------|
A---2------------------------------------------------------------------------|
E---0--------------------------------------------------------------0-2^--2^--|


Intro

Verse

Pre-Chorus

Chorus

Verse

Pre-Chorus

Chorus

Solo

Outro
Related for Youre Still The One tab