Guitaretab - guitar tabs
Song name
# A B C D E F G H I J K L M N O P Q R S T U V W X Y Z
Home / R / Roper / Amplify tab

Roper - Amplify tab

Band:  Roper
Song:  Amplify
Album: Brace Yourself for Mediocre


Guitar 1 = Rythm
Guitar 2 = Lead


Intro: Both guitars
-------------------------------------------------------------------|
-------------------------------------------------------------------|
------7-7-6-6-7------7-7-6-6-7------7-7-6-6-7------6-7-9-7-6-------|
----------------------------------------------------------------x2-|
-5-5---------------------------------------------------------------|
-----------------5-5------------7-7------------3-3-----------------|
(palm mute all throughout)

Pre-Verse: Guitar 1
------------------------------------------------------------|
------------------------------------------------------------|
--7-7-7-7-7-7---------------4-4-4-4-4-4---------------------|
--7-7-7-7-7-7--7-7-7-7-7-7--4-4-4-4-4-4--5-5-5-5-5-5-----x4-|
--5-5-5-5-5-5--7-7-7-7-7-7--2-2-2-2-2-2--5-5-5-5-5-5--------|
---------------5-5-5-5-5-5---------------3-3-3-3-3-3--------|


Pre-Verse: Guitar 2 (synth)
-17-14--17-14/12--10/12--17/14/12/10--17-14----17-14--17-14/12--10/12--pause-|
-----------------------------------------------------------------------------|
-----------------------------------------------------------------------------|
-----------------------------------------------------------------------------|
-----------------------------------------------------------------------------|
-----------------------------------------------------------------------------|

-10-12--17-14-------|
--------------------|
--------------------|
-----------------x2-|
--------------------|
--------------------|
--------------------|


Verse: Both guitars
---------------------------------------------------|
---------------------------------------------------|
--7-7--7-7--------------------------------------x2-|
--7-7--7-7---5-5--5-5---7-7--7-7---5-5--5-5--------|
--5-5--5-5---5-5--5-5---7-7--7-7---5-5--5-5--------|
-------------3-3--3-3---5-5--5-5---3-3--3-3--------|


Pre-Chorus: Guitar 1
------------------------------------------------------------------|
------------------------------------------------------------------|
-77777777777777----------------44444444444444---------------------|
-77777777777777-77777777777777-44444444444444-55555555555555---x2-|
-55555555555555-77777777777777-22222222222222-55555555555555------|
----------------55555555555555----------------33333333333333------|
(palm mute, and on the second time, let it ring on the G chord)


Pre-Chorus: Guitar 2
------------------------------------------------------------------------|
------------------------------------------------------------------------|
------7-7-6-6-7-7------7-7-6-6-7-7------7-7-6-6-7-7----7-7-6-6-7-7------|
---------------------------------------------------------------------x4-|
-5-5--------------------------------------------------------------------|
-------------------5-5--------------7-7--------------3------------------|
(palm mute all throughout except for 4th 776677 played the 1st^ and 3rd time)

[ Tab from: http://www.guitaretab.com/r/roper/164585.html ]
Chorus: Guitar 1
--------------------------------------------------------------------------|
--------------------------------------------------------------------------|
-7777777777777777------------------7777777777777777-----------------------|
-7777777777777777-7777777777777777-7777777777777777-5555555555555555---x2-|
-5555555555555555-7777777777777777-5555555555555555-5555555555555555------|
------------------5555555555555555------------------3333333333333333------|


Chorus: Guitar 2
-----------------------------------------------------------------------------|
-------------------------------------------------------------------------x2--|
7--9-9-11-11-12121212------------------7--9-9-11-11-12121212-----------------|
x--x-x-x--x--xxxxxxxx-7777777777777777-x--x-x-x--x--xxxxxxxx-55555555555555--|
5--7-7-9--9--10101010-7777777777777777-5--7-7-9--9--10101010-55555555555555--|
-----------------------5555555555555555----------------------33333333333333--|

Pre-Verse

Verse

Pre-Chorus

Chorus

Interlude: Guitar 2
------------------------------------------------------------|
------------------------------------------------------------|
-7~---------------------------------------------------------|
-7~--pause--------------------------------------------------|
-5~---------5555555555555555555555--------------------------|
-----------------------------------5555777777777777777777---|
           (               palm mute                     )


Interlude: Guitar 1
-----------------------------------------------------------------------------|
-----------------------------------------------------------------------------|
-----------------------------------------------------------------------------|
-----------------------------------------------------------------------------|
-555555555555555555555555--------------------------555555555555555555555555--|
--------------------------333333333333333333333333---------------------------|


-----------------------------|
-----------------------------|
-----------------------------|
----------------Pick-Slide---|
-----------------------------|
-333333333333----------------|


Chorus (for guitar 1)

Final Chorus: Guitar 2
----------------------------------------------------------------------|
----------------------------------------------------------------------|
-7777777777777777-9999999999999999-1111111111111111111111111111111----|
-xxxxxxxxxxxxxxxx-xxxxxxxxxxxxxxxx-x-x-x-x-x-x-x-x-x-x-x-x-x-x-x-x----|
-5555555555555555-7777777777777777-9-9-9-9-9-9-9-9-9-9-9-9-9-9-9-9----|
----------------------------------------------------------------------|

-----------------------------------------|
-----------------------------------------|
-12121212121212121212121212121212----x2--|
-xxxxxxxxxxxxxxxxxxxxxxxxxxxxxxxx--------|
-10101010101010101010101010101010--------|
-----------------------------------------|


Pre-Verse


Ending: Guitar 1
-----------|
-----------|
---7~------|
---7~------|
---5~------|
-----------|


Ending: Guitar 2
---10~-----|
-----------|
-----------|
-----------|
-----------|
-----------|

Enjoy
Related for Amplify tab