Song name
# A B C D E F G H I J K L M N O P Q R S T U V W X Y Z

Rory And Friends - Ekchhin Baraalinda tab

Pluckin:(D,C,G,D,Fm)

This is my first tab...Please check yourself.....

D major
e------2---------2------2------------------------------------------------|
B--------3---------3------3----------------------------------------------|
G--2-------2---------2---------------------------------------------------|
D--0---------0-----------------------------------------------------------|
A--0---------------------------------------------------------------------|
E------------------------------------------------------------------------|

C major
e------0---------0---------0---------------------------------------------|
B--------1----------1---------1------------------------------------------|
G--0-------0----------0--------------------------------------------------|
D--2----------2----------------------------------------------------------|
A--3---------------------------------------------------------------------|
E------------------------------------------------------------------------|

G major
e-----3---------3--------3-----------------------------------------------|
B-------3----------3-------3---------------------------------------------|
G----------0---------0---------------------------------------------------|
D--0----------0----------------------------------------------------------|
A--2---------------------------------------------------------------------|
E--3---------------------------------------------------------------------|

Fm 
e------1------1-------1--------------------------------------------------|
B--------1------1--------1-----------------------------------------------|
G--1-------1-------1-----------------------------------------------------|
D--3---------3-----------------------------------------------------------|
A--3---------------------------------------------------------------------|
E------------------------------------------------------------------------|
Tap to rate this tab
 
# A B C D E F G H I J K L M N O P Q R S T U V W X Y Z