Guitaretab - guitar tabs
Song name
# A B C D E F G H I J K L M N O P Q R S T U V W X Y Z

Rory Gallagher - Middle Name tab

Rory Gallagher - Middle Name (from Fresh Evidence)


Intro       Main riff

E----------E--------------[palm]--------------------|
B--[muted]-B--------------[muted]-------------------|
G--[slide]-G----------------------------------------|
D----------D---------------4-4-4------x16-----------|
A----------A---------------4-4-4--------------------|
E--2/14/12-E-0h2p0h2p0h2p0h2-2-2--------------------|
[ Tab from: http://www.guitaretab.com/r/rory-gallagher/109224.html ]
E--------------------------------------------------|
B--------------------------------------------------|
G--------------------------------------------------|
D--777-999-777-999-2-4-----------------------------|
A--777-999-777-999-2-4------x2---------------------|
E--555-777-555-777-0-2-----------------------------|

Then there's a key change for the solo, from F# to G# witht same riff and turnaround in 
new key. Hence:

E--------------------------------------------------|
B--------------------------------------------------|
G--------------------------------------------------|
D----------------6-6-6----999-111-999-111-4-6------|
A----------------6-6-6----999-111-999-111-4-6------| (substitute the 1 for
E--2h4p2h4p2h4p2h4-4-4----777-999-777-999-2-4------|  an 11)


After the solo, it drops back to the original key. I may post the solo later, but it's 
hard to work out. In the key of G#. Blues.
Related for Middle Name tab
Advertisement will be closed in 10 seconds