Song name
# A B C D E F G H I J K L M N O P Q R S T U V W X Y Z

Rory Gallagher - Lonesome Highway tab

 This is the first Rory song I learned besides Bad Penny and its taken from the Very
Best of Rory Gallagher Album Enjoy!

 e|------------------------------------------------------|
 B|----3--1-----------7--3-----3--1-----------3----------|
 G|----------2-4-2-------------------2-4-2---------------|
 D|-0--------------3--------0--------------3-------------|
 A|------------------------------------------------------|
 E|------------------------------------------------------|

Then VERSE:  e|-------------------|
             B|-------------------|
             G|-------------------|
             D|--5-------3--------|
             A|--5-------3--------|
             E|--3-------1--------|
Tap to rate this tab
# A B C D E F G H I J K L M N O P Q R S T U V W X Y Z