Song name
# A B C D E F G H I J K L M N O P Q R S T U V W X Y Z

Rory Gallagher - Philby tab

e---|-------------------------------------------------------------|
B---|-------------------------------------------------------------|
G---|.------------------------------------------------------------|
D---|.---10----8-8----6--6-----6--5---8--10-10--------------------|
A---|----10----8-8----6--6-----6--5---8--10-10--------------------|
E---|-------------------------------------------------------------|


e---|-------------------------------------------------------------|
B---|-------------------------------------------------------------|
G---|.------------------------------------------------------------|
D---|.---10----8------6--6-----6--5---8--10-10--------------------|
A---|----10----8------6--6-----6--5---8--10-10--------------------|
E---|-------------------------------------------------------------|

Tap to rate this tab
 
# A B C D E F G H I J K L M N O P Q R S T U V W X Y Z