Song name
# A B C D E F G H I J K L M N O P Q R S T U V W X Y Z

Rory Gallagher - Hands Off tab

Artist: Rory Gallagher
Album: Blueprint
Tabbed By: Led Head

Standard Tuning

Intro Riff(X3) (also used during the Verses)
e|------------------------------------------------------------------------------|
B|------------------------------------------------------------------------------|
G|------------------------------------------------------------------------------|
D|------------------2-----------------------------------------------------------|
A|------------0h2p0-------------------------------------------------------------|
E|----------3-------------------------------------------------------------------|


Chorus
e|------------------------------------------------------------------------------|
B|------------------------------------------------------------------------------|
G|------------------------------------------------------------------------------|
D|--22--44--22--44--22--44--22--44--22--44--22--44--22--44--22--44--------------|
A|--00--00--00--00--00--00--00--00--00--00--00--00--00--00--00--00--------------|
E|------------------------------------------------------------------------------|

e|------------------------------------------------------------------------------|
B|------------------------------------------------------------------------------|
G|------------------------------------------------------------------------------|
D|------------------------------------------------------------------------------|
A|--22--44--22--44--22--44--22--44--22--44--22--44--22--44--22--44--------------|
E|--00--00--00--00--00--00--00--00--00--00--00--00--00--00--00--00--------------|

e|----------3--------------------3----------------------------------------------|
B|----------0--------------------2----------------------------------------------|
G|----------0--------------------3----------------------------------------------|
D|----------0--------------------0---------------------2-0----------------------|
A|----------2----------------------------------------------2p0------------------|
E|----------3--------------------------------------------------3-0--------------|
Tap to rate this tab
 
# A B C D E F G H I J K L M N O P Q R S T U V W X Y Z