Song name
# A B C D E F G H I J K L M N O P Q R S T U V W X Y Z

Rory Gallagher - Messin With The Kid tab

-----------------------------------------------------------------------------
			     Messin with the Kid - Rory Gallagher
-----------------------------------------------------------------------------
Tabbed by:Gareth Quinn Redmond
Email:Garethqr@hotmail.com

Tuning:EADGBE
 Intro:        D                          E7
      e|-----------------------------------------------------|Repeat the E7
      B|---------------------------------8-------------------|while doing
      G|-------7-----7----7----7--7------7-------------------|versus
      D|-------7-----7----7----7--7------6-------------------|
      A|-------5-----5----5----5--5------7-------------------|
      E|-----------------------------------------------------|
After Verse:
      e|--------------------------------------------------------------------|
      B|--------------------------------------------------------------------|
      G|-----2p----0-------------------2p------0----------------------------|
      D|----------------2--------------------------2------------------------|
      A|--0--------------------0--------------------------------------------|
      E|--------------------------------------------------------------------|

      e|--------------------------------------------------------------------|
      B|--------------------------------------------------------------------|
      G|--------------------------------------------------------------------|
      D|-----------2p-------0------------------------2p------0--------------|
      A|-------------------------------2------------------------------2-----|
      E|-------------------------------------0------------------------------|

          v   ^   v   v  v
     e|-------x-------------------------------------------------------------|
     B|-------x-------------------------------------------------------------|
     G|---4---x---4---2--2--------------------------------------------------|
     D|---4-------4---2--2------2p---0--------------------------------------|
     A|---2-------2---0--0---------------2p----0----------------------------|
     E|-----------------------------------------3b---0----------------------|

| ^  Up Storke
| v  Down stroke
| /  slide up
| \  slide down
| h  hammer-on
| p  pull-off
| ~  vibrato
| +  harmonic
| x  Mute note
Tap to rate this tab
# A B C D E F G H I J K L M N O P Q R S T U V W X Y Z