Song name
# A B C D E F G H I J K L M N O P Q R S T U V W X Y Z

Rory Gallagher - Hellcat tab

rory gallagher- hellcat

----------------------------------------|
----------------------------------------|
--------5------3------------2-----------|
---4//6--6-3/4---4-0-2--2/3---2p0-------|
----------------------------------3-0---|
----------------------------------------|

----------------------------------------|
----------------------------------------|
--------5------3------------2-------t2--|
---4//6--6-3/4---4-0-2--2/3---2p0-------|
----------------------------------3-----|
----------------------------------------|

 d  d  d  d u    u d u d  d
----------------------------------------|
-2--2--3--3-2----2-2-2-3--3-------------|
-2--2--2--2-2----2-2-2-2--2-------------|
-2--2--4--4-2----2-2-2-4--4-------------|
-0--0--0--0-0----0-0-0-0--0-------------|
----------------------------------------|repeat! by pmcg
Tap to rate this tab
# A B C D E F G H I J K L M N O P Q R S T U V W X Y Z