Song name
# A B C D E F G H I J K L M N O P Q R S T U V W X Y Z

Rory Gallagher - Philby tab

power chords

E|---------------------|
B|---------------------|
G|-5--3-------------5-5|
D|-5--3--6-6--6--5--5-5|
A|-3--1--6-6--6--5--3-3|
E|-------4-4--4--3-----|

E|---------------1-3|------8-10-8h10p8------8|
B|-4-3-4-3---3-4----|-8-11-------------11-8--|
G|---------5--------|------------------------|
D|------------------|------------------------|
A|------------------|------------------------|
E|------------------|------------------------|

|-8-10-11-10-8h10p8------8-10-8h10p8------8-10-8h10p8------8|
|-------------------11-8-------------11-8-------------11-8--|
|-----------------------------------------------------------|
|-----------------------------------------------------------|
|-----------------------------------------------------------|
|-----------------------------------------------------------|


E|----6--------------|---------------------------|
B|-/8----\6-4-6-4----|---------------------------|
G|----------------5-5|----3-5p3---3--------------|
D|-------------------|-/5-------5---5-5p3/1-3-1--|
A|-------------------|--------------------------3|
E|-------------------|---------------------------|

|------------------------------------------------------|
|-----------------------------3-4-3h4p3---3-4-3h4p3----|
|-------------------------3-5-----------5-----------3-5|
|-----------1---1-3-1-3/5------------------------------|
|-3-1---1-3---3----------------------------------------|
|-----3------------------------------------------------|
Tap to rate this tab
 
# A B C D E F G H I J K L M N O P Q R S T U V W X Y Z