Song name
# A B C D E F G H I J K L M N O P Q R S T U V W X Y Z

Rory Gallagher - The King Of Zydeco tab

-------------------------------------------------------------------------------
			     King of Zydeco - Rory Gallagher
-------------------------------------------------------------------------------
Tabbed by:
Email:

Tuning: Standard EADGBe

Chords:

Verse:

Am/C/Bb/E
Am/C/Bb/E

When on E, the bassist goes back to A by doing the following:

G|---------------------------------------------------------------------------|
D|---------------------------------------------------------------------------|
A|--7--5--3--2--0------------------------------------------------------------|
E|---------------------------------------------------------------------------|

Chorus:

F/C/F/C/G
F/C/F/C/E

Guitar Solo:

*Notes*

All bends are full tone bends. Watch out for the vibrato on some of the bends,
and the pre-bends (pb) and pre-bend releases (pbr) are really important.

e|---------------------------------------------------------------------------|
B|---------------------------------------------------------------------------|
G|--4h5p4-----4--5--7--9--9--9--10--12v--10--9--7--5--7--7b------------------|
D|---------7-----------------------------------------------------------------|
A|---------------------------------------------------------------------------|
E|---------------------------------------------------------------------------|

e|---------------------------------------------------------------------------|
B|-----8------------6-----6----6-----6---------------------------------------|
G|--7b---7pbr----5b----5b---5b---5b----5bv-----------------------------------|
D|---------------------------------------------------------------------------|
A|---------------------------------------------------------------------------|
E|---------------------------------------------------------------------------|

e|---------------------------------------------------------------------------|
B|---10p9-10p9----------12---------------------------------------------------|
G|--------------9---11b---11pbv----------------------------------------------|
D|---------------------------------------------------------------------------|
A|---------------------------------------------------------------------------|
E|---------------------------------------------------------------------------|

    Thrill
e|---------------------------------------------------------------------------|
B|------------8b-------------------------------------------------------------|
G|--9h12p9\---------9pbr---7pbr----------------------------------------------|
D|---------------------------------------------------------------------------|
A|---------------------------------------------------------------------------|
E|---------------------------------------------------------------------------|

e|---------------------------------------------------------------------------|
B|---------------------------------------------------------------------------|
G|--/9v---/13v---11pbr---7pbr------------------------------------------------|
D|---------------------------------------------------------------------------|
A|---------------------------------------------------------------------------|
E|---------------------------------------------------------------------------|



************************************

| /   slide up
| \   slide down
| h   hammer-on
| p   pull-off
| ~   vibrato
| +   harmonic
| x   Mute note
| b   Bend
| pb  Pre-bend
| br  Bend release
| pbr Pre-bend release
| brb Bend release bend

************************************
Tap to rate this tab
# A B C D E F G H I J K L M N O P Q R S T U V W X Y Z