Song name
# A B C D E F G H I J K L M N O P Q R S T U V W X Y Z

Rory Gallagher - Moonchild tab

Artist: Rory Gallagher
Song: Moonchild
Album: Stage Struck
Year: 1980
Tabbed by: MhStrat


Intro:
e|--------------------------------------------------|
B|--------------------------------------------------|
G|------5--7--9---10-10---------5--7--9---10-10-----|
D|------7--9--10--12-12---------7--9--10--12-12-----|
A|---0--0--0--0---0--0-------0--0--0--0---0--0------|
E|--------------------------------------------------|

e|--------------------------------------------------|
B|--------------------------------------------------|
G|--------------------5b7~~~~~~~~--(12)---5p3-------|
D|-----------------0--------------------------------|
A|---2--------2--4----------------------------------|
E|---0--4--5----------------------------------------|

e|-------------------3------------------------------|
B|-------------------2------------------------------|
G|-------------------3------------------------------|
D|---2--2--3--5--3~--0------------------------------|
A|---2--2--3--5--3~--0------------------------------|
E|---0--0--1--3--1~---------------------------------|


It should be something like this.
Tap to rate this tab
 
# A B C D E F G H I J K L M N O P Q R S T U V W X Y Z