Song name
# A B C D E F G H I J K L M N O P Q R S T U V W X Y Z

Rory Gallagher - Cradle Rock tab

I've just heard the song and worked it out as:

Tabbed by Rory Collins

E|-------------------------------------------|
B|-------------------------------------------|
G|-------------------------------------------|
D|-------------2-----------------------------|
A|-0h2p0---0----------0h2p0---0------------0-|
E|-------3---3----0h3-------3---3-0--0-0-3---|

|--------------------------------------------|
|--------------------------------------------|
|---------------2h4p2------------------------|
|-------------2-------2----------------------|
|-0h2p0---0--------------0h2p0---0-----------|
|-------3---3------------------3---3-0-------|
Tap to rate this tab
 
# A B C D E F G H I J K L M N O P Q R S T U V W X Y Z