Song name
# A B C D E F G H I J K L M N O P Q R S T U V W X Y Z

Rory Gallagher - Rock Ya Baby tab

this is a 12 bar intro and also the
main riff of the song!!

tabbed by keith.m
1)  repeated x4      2)   repeated x2     3)  repeated x2     4)
e--------------------|--------------------|-------------------|----------|
B--------------------|--------------------|-------------------|----------|
G--------------------|-------2-0----------|-------------------|-----4-2--|
D-----2-0------------|-----------2-0------|------2-0----------|----------|
A----------2-0-------|-0-0-----------3-0--|-----------2-0-----|-2-2------|
E-0-0-----------3-0--|--------------------|-0-0-----------3-0-|----------|

e-------|------------------|--------------------|------------------------|
B-------|------------------|--------------------|------------------------|
G-------|-------2-0--------|--------------------|------------------------|
D--4-2--|-----------2-0----|------2-0-----------|------------------------|
A------4|-0-0------------3-|-----------2-0------|------------------------|
E-------|------------------|-0-0------------3-0-|------------------------|       5)  
  x2 its really simple once tou get the hang of it !!!!b
Tap to rate this tab
 
# A B C D E F G H I J K L M N O P Q R S T U V W X Y Z