Song name
# A B C D E F G H I J K L M N O P Q R S T U V W X Y Z

Rosa Robi Draco - Vagabundo tab

-------------------------------------------------------------------------------
			     VAGABUNDO - Robi Draco Rosa
-------------------------------------------------------------------------------
Tabbed by: Manuel Baez
Email:         baez.ml@gmail.com

Tuning: Standard

Intro & Verse (1)

e|---------------------------------4-/-3--------------- ---|
B|---------------------------------4-/-3--------------- ---|
G|---------------------------------3-/-2-------------------|
D|---------------------------------------------------------|
A|-------2-h-3-p~2-----------------------3-4-5-------------|
E|----3------------h-3-4-p~3--------------------~5---------|

Pre-chorus (2)
				     D-7 A#7	D-7 G7 A#7	D-7 A#7 C7

e|--------------------------------5---6-----5---3---6-----5---6--- 8-------------|
B|--------------------------------6---6-----6---3---6-----6---6--- 8-------------|
G|--------------------------------5---7---- 5---4---7-----5---7--- 9-------------|
D|--------------------------------7---6-----7---3---6-----7---6--- 8-------------|
A|-------2-h-3-p~2---------------5---8-----5---5---8-----5---8---10--------------|
E|----3------------h-3-4-p~3-----x---6-----x---3---6-----x---6--- 8--------------|

Chorus (3)

	D-7	A#7	D-7	A#7	C7

e|-------5------6------5------6------ 8--------------------------|
B|-------6------6------6------6------ 8--------------------------|
G|-------5------7------5------7------ 9--------------------------|
D|-------7------6------7------6------ 8--------------------------|
A|-------5------8------5------8------10--------------------------|
E|-------x------6------x------6------ 8--------------------------|

Outro (4)

	D-7	A#7	D-7	A#7	C7

e|-------5------6------5------6------ 8---------------------------|
B|-------6------6------6------6------ 8---------------------------|
G|-------5------7------5------7------ 9---------------------------|
D|-------7------6------7------6------ 8---------------------------|
A|-------5------8------5------8------10---------------------------|
E|-------x------6------x------6------ 8---------------------------|


Letras con ESQUEMA

(1)
En un lugar desierto creí morir de sed
y un animal preñado de luz me dio de beber.

(2)
Lenguas de sol, beber a tragos el placer
y sentir la boca del miedo
tú y yo arena y escorpión
en un mar de fuego
bajo el beso de la noche.

(3)
Rodando por el mundo camino, camino
Pregunto a la Quimera el enigma del destino
Nómada loco, noctámbulo y soñador
Un vagabundo.

(1)
Arena y luz, esperma y olor de juventud

(2)
Lenguas de sol, beber a tragos el placer
Sentir la boca del miedo
tú y yo arena y escorpión
en un mar de fuego
buscando la Quimera
bajo el beso de la noche.

(2)
Lenguas de sol, oasis de amor, poetas en el Edén
al fin te encuentro en esta hoguera
beso el fuego y no me quemo.

(3)
Rodando por el mundo camino, camino
Pregunto a la Quimera el enigma del destino
Nómada loco, noctámbulo y soñador
Un vagabundo
trono sin rey
Un vagabundo
Templo sin dios
Un vagabundo.

(4)

| /  slide up
| \  slide down
| h  hammer-on
| p  pull-off
| ~  vibrato
| +  harmonic
| x  Mute note
===============================================================================
Tap to rate this tab
# A B C D E F G H I J K L M N O P Q R S T U V W X Y Z