Song name
# A B C D E F G H I J K L M N O P Q R S T U V W X Y Z

Rosanne Cash - Tennessee Flat Top Box tab

E||-------------------------------------------||
B||--------0----------------0-----------------||
G||-1-2-3--3/4--4-4---------3/4--4-4----------||
D||-----------------4--4-4-----------4--4-4---||
A||-------------------------------------------||
E||-------------------------------------------||

E||--------------------------|------------------||
B||-0-0----------------------|*----------------*||
G||--------2--2-1------------|------------------||
D||-----4---------4-2--2-1---|---------6p4-6p4--||
A||------------------------4-|*-2--2-2---------*||
E||--------------------------|------------------||

E||----------|----------|----------|----------|---||
B||*--------*|*--------*|*--------*|*--------*|---||
G||----------|----------|----------|----------|---||
D||----------|----------|----------|----------|---||
A||*-----2--*|*-----4--*|*-----2--*|*-----4--*|---||
E||---2------|---2------|---2------|---2------|-2-||

E||-------------|------------------------------------------|
B||*-----------*|---0--0------------0-----------0----------|
G||-------------|-1------11h2-1----3/4--4-4----3/4-4-4---|
D||-------1-2---|----------------4-----------4-----------4-|
A||*--2-4------*|------------------------------------------|
E||-------------|------------------------------------------|
Tap to rate this tab
# A B C D E F G H I J K L M N O P Q R S T U V W X Y Z