Song name
# A B C D E F G H I J K L M N O P Q R S T U V W X Y Z

Rose Funeral - Crucify Kill Rot tab

Artist - Rose Funeral
Song - Crucify. Kill. Rot.
Album - Crucify. Kill. Rot.
Label - Self Released.
Website - http://www.myspace.com/rosefuneral

Drop B tuning.
h-Hammer On
.-Palm Mute


--------------------------------------------|
--------------------------------------------|
--------------------------------------------|
--------------------------------------------|
----5h8---4h7-------------------------------|
-5h8---4h7----------------------------------|

Guitar-speaker right first, then Guitar-speaker left.

-----------------------------------------------------------------------|
-----------------------------------------------------------------------|
-----------------------------------------------------------------------|
-----------------------------------------------------------------------|
-0-0-0-0-0--0-0-0-0-0--0--0-0-0-0-0--0-0-0-0-0--0-0-0-0-0----5h8---4h7-|
-0-0-0-0-0--0-0-0-0-0--0--0-0-0-0-0--0-0-0-0-0--0-0-0-0-0-5h8---4h7----|
 . . . . .  . . . . .  .  . . . . .  . . . . .  . . . . .

Do the above riff 4 times.  Pause.  4 more times.  Pause.  Then 4 more times without the 
ons.
Tap to rate this tab
# A B C D E F G H I J K L M N O P Q R S T U V W X Y Z