Song name
# A B C D E F G H I J K L M N O P Q R S T U V W X Y Z

Rose Funeral - State Of Deacay Melody Breakdown tab

Tabbed By: Brock
email: VilleVallo12@gmail.com


Melody:
   ]------------------------------------------|
   ]------------------------------------------|
   ]------------------------------------------|
   ]--------8----------8--------10------------|   x6
   ]--12-10---12-10h12-8-8h10-8-10-10h12-10---|
   ]0------------------8--------10------------|

Pre-BreakDown:

   ]--------------------------------------------------------]
   ]--------------------------------------------------------]
   ]---------Lc-------Rc------------------------------------]
   ]--0~---[0000]---[0000]-----00000000000000000000---------]
   ]--0~---[0000]---[0000]-----00000000000000000000---------]
   ]--0~---[0000]---[0000]-----00000000000000000000---------]
         p.m.=======================================

   ]-------------------------------------------------------------------]
   ]-------------------------------------------------------------------]
   ]-------------------------------------------------Lc------Rc--------]
   ]-000000000--3--2--1--2--000000000--3--2--1--2--[0000]--[0000]------]
   ]-000000000--3--2--1--2--000000000--3--2--1--2--[0000]--[0000]------]
   ]-000000000--3--2--1--2--000000000--3--2--1--2--[0000]--[0000]------]
   p.m.===========================================================

BreakDown:

   ]----------------------------------|
   ]----------------------------------|
   ]----------------------------------| x6
   ]-00----00-00--000000--00---00-00--|
   ]-00----00-00--000000--00---00-00--|
   ]-00----00-00--000000--00---00-00--|
Tap to rate this tab
# A B C D E F G H I J K L M N O P Q R S T U V W X Y Z