Song name
# A B C D E F G H I J K L M N O P Q R S T U V W X Y Z

Rose Funeral - Dawning The Resurrection tab

Tabbed By -Angel-0-

x = Palm Mute
-- = Hold Note
h = Hammer-On
P = Pull-Off

-This is my first tab
-In Dropped B Tuning
-Half of this song is on piano, But I figured it out on guitar.
-You only need the top three strings for this song
-This song is also very slow and easy. So have fun :D

-Intro-
0.00 - 0.15
|--------------------------------|
|--------------------------------|
|--------------------------------|
|-------7-5---------0-2-3--------|
|-5-7-8-----8-7-8-1-------3--1-0-|
|--------------------------------|
                            ^
(The -- Here means hold the 3 for a beat)

0.15 - 1.01
|-------------------------------------------|
|-------------------------------------------|
|-------------------------------------------|
|-------7---5-7-----3-2-3---0-2-3-----------|    (3x)
|-5-7-8---8-----8-3-------1-------3-1-0-1-0-|
|-------------------------------------------|

1.01 - 1.03
|-----------|
|-----------|
|-----------|
|- ------5--|
|-5-7-8-----|
|-----------|

1.05 - 1.44
-Guitar 1-
|-------------------------------------------------------------------------|
|-------------------------------------------------------------------------|
|-------------------------------------------------------------------------|
|-------------------------------------------------------------------------| 5x
|-5-4-5-7-5-7-8-7-8-10-8-10-12-10-12-13-12-10-12-10-8-10-8-7-8-7-5-7-5--4-|
|-------------------------------------------------------------------------|

1.05 - 1.44
-Guitar 2-
(All Palm Mute)

|---------------------------------------------------------------------|
|---------------------------------------------------------------------|
|---------------------------------------------------------------------|
|-0-0-0-0-0-0--0-0--0-0-0-0-0-0--0-0--0-0-0-0-0-0-0-0-0-0-0-0-0-0-0-0-|
|-0-0-0-0-0-0--0-0--0-0-0-0-0-0--0-0--0-0-0-0-0-0-0-0-0-0-0-0-0-0-0-0-|
|-0-0-0-0-0-0--0-0--0-0-0-0-0-0--0-0--0-0-0-0-0-0-0-0-0-0-0-0-0-0-0-0-|

|---------------------------------|
|---------------------------------|
|---------------------------------|
|-0-0--0-0-0-0-0-0--0-0--0-0--0-0-|   (4x)
|-0-0--0-0-0-0-0-0--0-0--0-0--0-0-|
|-0-0--0-0-0-0-0-0--0-0--0-0--0-0-|

1.36 - 1.43
-Guitar 2-

|-----------------|
|-----------------|
|-----------------|
|-0---3---8---5---|
|-0---3---8---5---|
|-0---3---8---5---|

Breakdown
1.44 - 1.51
-Both Guitars-
(All Palm Mute)
|---------------------------------------------------------------------|
|---------------------------------------------------------------------|
|---------------------------------------------------------------------|
|-0-0-0-0-0-0--0-0--0-0-0-0-0-0--0-0--0-0-0-0-0-0-0-0-0-0-0-0-0-0-0-0-|
|-0-0-0-0-0-0--0-0--0-0-0-0-0-0--0-0--0-0-0-0-0-0-0-0-0-0-0-0-0-0-0-0-|
|-0-0-0-0-0-0--0-0--0-0-0-0-0-0--0-0--0-0-0-0-0-0-0-0-0-0-0-0-0-0-0-0-|

|----------------------------|
|----------------------------|
|----------------------------|
|-0-0--0-0-0-0-0-0--0-0--0-0-|
|-0-0--0-0-0-0-0-0--0-0--0-0-|
|-0-0--0-0-0-0-0-0--0-0--0-0-|

Breakdown
1.54 - 2.10
(All Palm Mute)
|---------------------------------------------------------------------|
|---------------------------------------------------------------------|
|---------------------------------------------------------------------|
|-0-0-0-0-0-0--0-0--0-0-0-0-0-0--0-0--0-0-0-0-0-0-0-0-0-0-0-0-0-0-0-0-|
|-0-0-0-0-0-0--0-0--0-0-0-0-0-0--0-0--0-0-0-0-0-0-0-0-0-0-0-0-0-0-0-0-|
|-0-0-0-0-0-0--0-0--0-0-0-0-0-0--0-0--0-0-0-0-0-0-0-0-0-0-0-0-0-0-0-0-|

|---------------------------------|
|---------------------------------|
|---------------------------------|
|-0-0--0-0-0-0-0-0--0-0--0-0--0-0-|   (2x)
|-0-0--0-0-0-0-0-0--0-0--0-0--0-0-|
|-0-0--0-0-0-0-0-0--0-0--0-0--0-0-|
Tap to rate this tab
 
# A B C D E F G H I J K L M N O P Q R S T U V W X Y Z