Song name
# A B C D E F G H I J K L M N O P Q R S T U V W X Y Z

Rose Funeral - Chapter Of The Reaping tab

Chapter of the Reaping by Rose Funeral
Either drop A# or Drop A

-------------------------------------------------|
-------------------------------------------------|
-------------------------------------------------|
-------------------------------------------------|
-------------------------------------------------|
-1-0-1-0~--5t-7t-8t-7t-1-0-1-0--5t-7t-13t-12t----|
-1-0-1-0~--------------1-0-1-0-------------------|
 . .                   . .

-------------------------------------------------|
-------------------------------------------------|
-------------------------------------------------|
-------------------------------------------------|
-------------------------------------------------|
-1-0-1-0~--5t-7t-8t-7t-1-0-1-0--5t-12t-13t-12t---|
-1-0-1-0~--------------1-0-1-0-------------------|
 . .                   . .

---------------------------------------------------------------------|
---------------------------------------------------------------------|
---------------------------------------------------------------------|
---------------------------------------------------------------------|
---------------------------------------------------------------------|
-1-0-1--------------------000-000-000-000-0-0-0-0----0-0-0-0---------|
-1-0-1-000-000-000-000----000-000-000-000-0-0-0-0-0--0-0-0-0-0-------|
 . .   ... ... ... ...    ... ... ... ... . . . .    . . . .

---------------------------------------------------------------------|
---------------------------------------------------------------------|
---------------------------------------------------------------------|
---------------------------------------------------------------------|
---------------------------------------------------------------------|
-------5h8-5h8---------4h7-4h7---------5h8-5h8---------4-5-7---------|
-0-0-0---------0-0-0-0---------0-0-0-0---------0-0-0-0--0-0----------|
 . . .         . . . .         . . . .         . . . .  . .
---------------------------------------------------------------------|
---------------------------------------------------------------------|
---------------------------------------------------------------------|
---------------------------------------------------------------------|
---------------------------------------------------------------------|
-0~-00--00-55-88-00-00-44-77-00-00-55-88-00-00-44-55-77--0-5-4-13-12-|
-0~-00--00-------00-00-------00-00-------00-00-----------0-----------|
    ..  ..       .. ..       .. ..       .. ..

---------------------------------------------------------------------|
---------------------------------------------------------------------|
---------------------------------------------------------------------|
---------------------------------------------------------------------|
-5t-4t-5t-8t-7t-----5t-4t-5t-10t-8t-----5t-4t-5t-8t-7t-12t-10t-8t-7t-|
---------------------------------------------------------------------|
Tap to rate this tab
# A B C D E F G H I J K L M N O P Q R S T U V W X Y Z