Rose Funeral - Chapter Of The Reaping tab

                               Rose Funeral
                          Chapter of the Reaping
                            The Resting Sonata
                                  \m/

---------------------------------------|
---------------------------------------|
---------------------------------------|
---------------------------------------|
--1-0-1-0~-5t-7t-8t-7t-----------------|
--1-0-1-0~-----------------------------|
  .   .
---------------------------------------|
---------------------------------------|
---------------------------------------|
---------------------------------------|
--1-0-1-0~-5t-7t-13t-12t---------------|
--1-0-1-0~-----------------------------|
  .   .
---------------------------------------|
---------------------------------------|
---------------------------------------|
---------------------------------------|
--1-0-1-0~-5t-7t-8t-7t-----------------|
--1-0-1-0~-----------------------------|
  .   .
---------------------------------------|
---------------------------------------|
---------------------------------------|
---------------------------------------|
--1-0-1-0~-5t-7t-13t-12t---------------|
--1-0-1-0~-----------------------------|
  .   .
---------------------------------------|
---------------------------------------|
---------------------------------------|
---------------------------------------|
--1-0-1--------------------------------|
--1-0-1-000-000-000-000----------------|
  .   . ... ... ... ...

---------------------------------------|
---------------------------------------|
---------------------------------------|
---------------------------------------|
--000-000-000-000-0000---0000----------|
--000-000-000-000-0000-0-0000-0--------|
  ... ... ... ... ....   ....

---------------------------------------|
---------------------------------------|
---------------------------------------|
---------------------------------------|
-------5h85h85h8------4h74h74h7--------|
--0000-----------0000------------------|
  ....           ....

---------------------------------------|
---------------------------------------|
---------------------------------------|
---------------------------------------|
--------4---5---7----------------------|
--00000---0---0------------------------|
  .....   .   .

---------------------------------------|
---------------------------------------|
---------------------------------------|
---------------------------------------|
--0~-00---00-55-88-00-00--44-77--------|
--0~-00---00-------00-00---------------|
     ..   ..       .. ..

---------------------------------------|
---------------------------------------|
---------------------------------------|
---------------------------------------|
--00-00-55-88-00-00--55-77-88----------|
--00-00-------00-00--------------------|
  .. ..       .. ..

---------------------------------------|
---------------------------------------|
---------------------------------------|
---------------------------------------|
--0~-5-4-13\-12---5t-4t-5t-8t-7t-------|
--0~-----------------------------------|


---------------------------------------|
---------------------------------------|
---------------------------------------|
---------------------------------------|
--5t-4t-5t-10t-8t--5t-4t-5t-8t-7t------|
---------------------------------------|

----------------|
----------------|
----------------|
----------------|
--12t-10t-8t-7t-|
----------------|

-----------------------------------------------------|
-----------------------------------------------------|
-----------------------------------------------------|
-----------------------------------------------------|
-------8---7------7---5------8---7-------4---5---7---|
--0000---0---0000---0---0000---0---00000---0---0-----|
  ....   .   ....   .   ....   .   .....   .   .
-----------------------------------------------------|
-----------------------------------------------------|
-----------------------------------------------------|
-----------------------------------------------------|
-------8---7------7---5------8---7-------4---5---7-0-|
--0000---0---0000---0---0000---0---00000---0---0---0-|
  ....   .   ....   .   ....   .   .....   .   .
-----------------------------------------------------|
-----------------------------------------------------|
-----------------------------------------------------|
-----------------------------------------------------|
--0000---0000---0000---000~-000~---------------------|
--0000-0-0000-0-0000-0-000~-000~---------------------|
  ....   ....   ...    ...  ...
-----------------------------------------------------|
-----------------------------------------------------|
-----------------------------------------------------|
-----------------------------------------------------|
--5555----5555----5555-8888----8t-7t-----8888--------|
-------0t------0t-----------8t-------10t-------------|

---------------------------------------|
---------------------------------------|
---------------------------------------|
---------------------------------------|
-------5h85h85h8------4h74h74h7--------|
--0000-----------0000------------------|
  ....           ....

---------------------------------------|
---------------------------------------|
---------------------------------------|
---------------------------------------|
--------4---5---7----------------------|
--00000---0---0------------------------|
  .....   .   .
---------------------------------------|
---------------------------------------|
---------------------------------------|
---------------------------------------|
--5t------5t----4t------4t-------------|
-----0t------0t----0t------0t----------|

----------------------------------------|
----------------------------------------|
----------------------------------------|
----------------------------------------|
--5t------5t----4t------0---------------|
-----0t------0t----0ttt-0---------------|

---------------------------------------|
---------------------------------------|
---------------------------------------|
---------------------------------------|
--000-000-000-000-0000---0000----------|
--000-000-000-000-0000-0-0000-0--------|
  ... ... ... ... ....   ....


All by ear mo fos.
Tap to rate this tab
 
# A B C D E F G H I J K L M N O P Q R S T U V W X Y Z