Song name
# A B C D E F G H I J K L M N O P Q R S T U V W X Y Z

Rose Funeral - Under A Godless Sky tab

h = hammer on
x = Palm Mute
s = Slide
~ = let ring
p = Pull off

Tabbed by 80


If you have any questions about anything 
hit up my myspace 
myspace.com/isawurheartasitovertookme


-Intro- 0:00 -0:01
Just listen to the song and you 
will get the rhythm in which its picked
Both Guitars
|--------------------|
|--------------------|
|--------------------|
|--3-2-3-2-3-5-7-5-3-|
|--------------------|
|0-------------------|


0:02
Both Guitars 
|-------------------------------------------------|
|-------------------------------------------------|
|-------------------------------------------------|
|-------------------------------------------------|
|---5h8---5h8---5h8---5h8---4h7---4h7---4h7---4h7-|
|0-0---0-0---0-0---0-0---4-4---4-4---4-4---4-4----|
 x x   x x   x x   x x   x x   x x   x x   x x

|-----------------------------------------------|
|-----------------------------------------------|
|-------------------------------hyper pick------|
|-------------------------------vvvvvvvvv-------|
|---8h12---8h12---8h12---8h12---8-7-5-4-5-7-5-4-|
|8-8----8-8----8-8----8-8----0-0----------------|
 x x    x x    x x    x x    x x

|---------------------------------------------------------|
|---------------------------------------------------------|
|---------------------------------------------------------|
|---------------------------------------------------------|
|---8h12---8h12---8h12---8h12---7h10---7h10---7h10---7h10-|
|8-8----8-8----8-8----8-8----7-7----7-7----7-7----7-7-----|
 x x    x x    x x    x x    x x    x x    x x    x x

|-----------------------------------------------|
|-----------------------------------------------|
|-------------------------------hyper pick------|
|---7h10---7h10---7h10---7h10---vvvvvvvvv-------|
|-------------------------------8-7-5-4-5-7-5-4-|
|7-7----7-7----7-7----7-7----0-0----------------|
 x x    x x    x x    x x    x x

Guitar 1 
0:18 - 0:25
|-------------------------------------------------|
|-------------------------------------------------|
|-------------------------------------------------|
|-------------------------------------------------|
|---5h8---5h8---5h8---5h8---4h7---4h7---4h7---4h7-|
|0-0---0-0---0-0---0-0---4-4---4-4---4-4---4-4----|
 x x   x x   x x   x x   x x   x x   x x   x x 

|-----------------------------------------------|
|-----------------------------------------------|
|-------------------------------hyper pick------|
|-------------------------------vvvvvvvvv-------|
|---8h12---8h12---8h12---8h12---8-7-5-4-5-7-5-4-|
|8-8----8-8----8-8----8-8----0-0----------------|
 x x    x x    x x    x x    x x

Guitar 2
0:18 - 0:25
|------------------------------------------------|
|------------------------------------------------|
|------------------------------------------------|
|------------------------------------------------|
|0-0---0---0-0-0-0---0-0-0-0---0-0---0---0-0-0-0-|
|0-0---0---0-0-0-0---0-0-0-0---0-0---0---0-0-0-0-|
 x x   x   x x x x   x x x x   x x   x   x x x x

0:26 - 0:26
Both Guitars
|------------------|
|------------------|
|------------------|
|0-0-0-0---0-0-0-0-|
|0-0-0-0---0-0-0-0-|
|0-0-0-0---0-0-0-0-|
 x x x x   x x x x

0:27 - 0:34
Both guitars
|------------------------------------------------|
|------------------------------------------------|
|------------------------------------------------|
|------------------------------------------------|
|5-5-5s8-8-8s5-5-5s8-8-8-4-4-4s7-7-7s4-4-4s7-7-7-|
|-0-0---0-0---0-0---0-0---0-0---0-0---0-0---0-0--|
  x x   x x   x x   x x   x x   x x   x x   x x

0:35 - 0:42
Both Guitars
|------------------------------------------------|
|------------------------------------------------|
|------------------------------------------------|
|3-3-3s7-7-7s3-3-3s7-7-7s2-2-2s5-5-5s2-2-2s5-5-5-|
|------------------------------------------------|
|-0-0---0-0---0-0---0-0---0-0---0-0---0-0---0-0--|
  x x   x x   x x   x x   x x   x x   x x   x x

0:43 - 0:50
Hyper Pick This Part. 
Both Guitars
|-------------------------------------------------|
|-------------------------------------------------|
|-------------------------------------------------|
|-7-5-3-2-3-5-7-5-3-2-3-5-7-5-3-2-3-5-------------|
|-------------------------------------------------|
|0-----------0-----------0-----------8-7-5-10-8-7-|

0:51 - 0:58
Hyper Pick
Both Guitars
|--------------------------------------------------------------|
|--------------------------------------------------------------|
|--------------------------------------------------------------|
|-7-5-3-2-3-5-7-5-3-2-3-5-7-5-3-2-3-5--------Gallop------------|
|--------------------------------------vvvvvvvvvvvvvvvvvvvvvvv-|
|0-----------0-----------0-------------8-8-8-8-----10-10-10-10-|

Guitar 1
0:59 - 1:00
|-------------------------|
|-------------------------|
|-------------------------|
|-------------------------|
|---5h8---5h8---5h8---5h8-|
|0-0---0-0---0-0---0-0----|
 x x   x x   x x   x x
Both Guitars x2
1:01 - 1:16
|---------------------------------------------------------|
|---------------------------------------------------------|
|---------------------------------------------------------|
|---------------------------------------------------------|
|---8h12---8h12---8h12---8h12---7h10---7h10---7h10---7h10-|
|8-8----8-8----8-8----8-8----7-7----7-7----7-7----7-7-----|
 x x    x x    x x    x x    x x    x x    x x    x x

|-----------------------------------------------|
|-----------------------------------------------|
|-------------------------------hyper pick------|
|---7h10---7h10---7h10---7h10---vvvvvvvvv-------|
|-------------------------------8-7-5-4-5-7-5-4-|
|7-7----7-7----7-7----7-7----0-0----------------|
 x x    x x    x x    x x    x x

Both guitars
1:17 - 1:23
|---------|
|---------|
|---------|
|0~----0~-|
|0~----0~-|
|0~----0~-|

Guitar 1
|------|
|------|
|------|
|------|
|------|
|13s1--|

Both Guitars X4
1:24 - 1:50
|-----------------------------------------------------|
|-----------------------------------------------------|
|-----------------------------------------------------|
|-----------------------------------------------------|
|-------8h12p8-------8h12p8-------7h10p7-------7h10p7-|
|0-0-0-0------0-0-0-0------0-0-0-0------0-0-0-0-------|

|---------------------------------------------------|
|---------------------------------------------------|
|---------------------------------------------------|
|-------7h10p7-------7h10p7-------5h8p5-3h7p3-2h5p2-|
|---------------------------------------------------|
|7-7-7-7------7-7-7-7------5-5-5-5------------------|

Both Guitars
1:51 - 1:53
|---------------|
|---------------|
|---------------|
|0~-------------|
|0~----0-0-0-0-0|
|0~----0-0-0-0-0|
       x x x x x

Both Guitars 
x2
1:54 - 2:09
|------------------------------------------------|
|------------------------------------------------|
|------------------------------------------------|
|3-3-3s7-7-7s3-3-3s7-7-7s2-2-2s5-5-5s2-2-2s5-5-5-|
|------------------------------------------------|
|-0-0---0-0---0-0---0-0---0-0---0-0---0-0---0-0--|
  x x   x x   x x   x x   x x   x x   x x   x x

Both guitars 
2:10 - 2:14
|---------------|
|---------------|
|---------------|
|0~-------------|
|0~----0~-0~-0~-|
|0~----0~-0~-0~-|
       x  x  x

Guitar 1 
x2                                                            The 2nd time 
2:15 - 2:39                                                   let the 2 last
                                                               notes ring
|17------------------|--------------------| |-----------|
|--18-17--17---------|18-17---------------| |-----------|
|-------17--17-15-14-|-----17--17---------| |-----------|
|--------------------|-------17--17-15-14-| |15~-14~~~~-|
|----------X2--------|----------X2--------| |-----------|
|--------------------|--------------------| |-----------|
      
Guitar 2
2:15 - 2:39
repeat untill 2:39
|--------------------------------|
|--------------------------------|
|--------------------------------|
|0--0--0----0-0-0-----0~--0~--0~-|
|0--0--0----0-0-0-----0~--0~--0~-|
|0--0--0----0-0-0-----0~--0~--0~-|
 x  x  x    x x x     x   x   x

Both Guitars 
Repeat untill end
|--------------------------------|
|--------------------------------|
|--------------------------------|
|0--0--0----0-0-0-----0~--0~--0~-|
|0--0--0----0-0-0-----0~--0~--0~-|
|0--0--0----0-0-0-----0~--0~--0~-|
 x  x  x    x x x     x   x   x



http://www.myspace.com/rosefuneral
Tap to rate this tab
# A B C D E F G H I J K L M N O P Q R S T U V W X Y Z