Song name
# A B C D E F G H I J K L M N O P Q R S T U V W X Y Z

Rose Funeral - Eternal Regret tab

Help us improve GuitareTab! Take a short survey!
Tabbed By 80

If you have any questions hit up my myspace
http://www.myspace.com/isawurheartasitovertookme



tp = tremelo pick (hyper pick)
h = Hammer on
p = Pull Off
s = slide
x = Palm Mute



Both Guitars x4
0:02 - 0:35
|-----------------------------------------------|
|-----------------------------------------------|
|-----------------------------------------------|
|----------------------7------10-8-7-8-7--------|
|--8tp-8-8-7tp-7-7-8tp---8-7tp-----------10-8-7-|
|0----0-0-0---0-0-0---0-0-0---------------------|
 x    x x x   x x x   x x x     

Guitar One x1
0:36 - 0:38
|----------------------------------|
|----------------------------------|
|----------------------------------|
|----------------------------------|
|0-0-3-3-3-3-10-10-8-8-6-6-5-5-3-3-|
|0-0-3-3-3-3-10-10-8-8-6-6-5-5-3-3-|
 x x x x x x x  x  x x x x x x x x

Both Guitars x9
0:38 - 1:01
|----------------------------------|
|----------------------------------|
|----------------------------------|
|----------------------------------|
|0-0-3-3-3-3-10-10-8-8-6-6-5-5-3-3-|
|0-0-3-3-3-3-10-10-8-8-6-6-5-5-3-3-|
 x x x x x x x  x  x x x x x x x x

Guitar One
1:01 - 1:02
|--------|
|--------|
|--------|
|0-3-2-3-|
|0-3-2-3-|
|0-3-2-3-|
 x x x x

Guitar Two
1:02 - 1:03
|--------|
|--------|
|--------|
|0-3-2-3-|
|0-3-2-3-|
|0-3-2-3-|
 x x x x

Both Guitars x4
1:03 - 1:18
|------------------------------------------------|
|------------------------------------------------|
|------------------------h12p9h12p9-h13p10h13p10-|
|0-3-2-3-0-3-2-3-0-3-2-3-------------------------|
|0-3-2-3-0-3-2-3-0-3-2-3-------------------------|
|0-3-2-3-0-3-2-3-0-3-2-3-------------------------|
 x x x x x x x x x x x x

Both Guitars play both parts x6
          play this x3 then play this x1 
1:21 - 1:45  
|------------------------| |--------------------------|
|------------------------| |--------------------------|
|h12p9h12p9-h13p10h13p10-| |h15p12h15p12-h16p13h16p13-|
|------------------------| |--------------------------|
|------------------------| |--------------------------|
|------------------------| |--------------------------|

Both Guitars
1:45 - 1:53 
|-----------------|
|-----------------|
|-----------------|
|0~-----0~--------|
|0~-----0~--------|
|0~-----0~----5s1-|

Both guitars x3
you will figure out the gallops.
1:54 - 2:00
|--------------------------------|
|--------------------------------|
|--------------------------------|
|--------------------------------|
|0-0-0-0-0--0--0-0-0-0-0-0-0-0-0-|
|0-0-0-0-0--0--0-0-0-0-0-0-0-0-0-|
 x x x x x  x  x x x x x x x x x


Both Guitars x8
you will figure out the gallops.
2:02 - 2:18
|--------------------------------|
|--------------------------------|
|--------------------------------|
|--------------------------------|
|0-0-0-0-0--0--0-0-0-0-0-0-0-0-0-|
|0-0-0-0-0--0--0-0-0-0-0-0-0-0-0-|

Both Guitars x1 
2:19 - 2:27 
|-----------------------------------------------|
|-----------------------------------------------|
|-----------------------------------------------|
|----------------------7------10-8-7-8-7--------|
|--8tp-8-8-7tp-7-7-8tp---8-7tp-----------10-8-7-|
|0----0-0-0---0-0-0---0-0-0---------------------|
 x    x x x   x x x   x x x     

Guitar One
2:27 - 2:35
|-----------------------------------------------|
|-----------------------------------------------|
|-----------------------------------------------|
|----------------------7------10-8-7-8-7--------|
|--8tp-8-8-7tp-7-7-8tp---8-7tp-----------10-8-7-|
|0----0-0-0---0-0-0---0-0-0---------------------|
 x    x x x   x x x   x x x

Guitar Two
2:27 - 2:35
|------------------------------------------------------------|
|------------------------------------------------------------|
|------------------------------------------------------------|
|------------------------------------------------------------|
|8tp-10tp-12tp-13tp-12tp-10tp-12tp-10tp-8tp-7tp-8tp-10tp-8tp-|
|------------------------------------------------------------|

Guitar one 
2:35 - 2:43
|-----------------------------------------------|
|-----------------------------------------------|
|-----------------------------------------------|
|----------------------7------10-8-7-8-7--------|
|--8tp-8-8-7tp-7-7-8tp---8-7tp-----------10-8-7-|
|0----0-0-0---0-0-0---0-0-0---------------------|
 x    x x x   x x x   x x x

Guitar two
2:35 - 2:43
|-----------------------------------------------------------------|
|-----------------------------------------------------------------|
|-----------------------------------------------------------------|
|---------------------------------10tp-8tp-7tp----8tp-7tp-5tp-7tp-|
|8tp-10tp-12tp-13tp-12tp-10tp-8tp--------------8tp----------------|
|-----------------------------------------------------------------|

Guitar one
2:44 - 2:58
|-------------------------|
|-------------------------|
|-------------------------|
|0~~---0~~---8~~---7~--8~-|
|0~~---0~~---8~~---7~--8~-|
|0~~---0~~---8~~---7~--8~-|


Guitar two
2:44 - 2:51
|------------------------------------------------------------|
|------------------------------------------------------------|
|------------------------------------------------------------|
|0-----------------------------0-----------------------------|
|0-8tp-7tp-5tp-4tp-0tp-4tp-5tp-0-8tp-7tp-5tp-4tp-0tp-4tp-5tp-|
|0-----------------------------0-----------------------------|


Guitar two
2:51 - 2:58
|------------------------------------------------------------|
|------------------------------------------------------------|
|------------------------------------------------------------|
|8-----------------------------7--------------8-7tp-5tp-3tp--|
|8-8tp-7tp-5tp-4tp-0tp-4tp-5tp-7-10tp-8tp-7tp-8--------------|
|8-----------------------------7--------------8--------------|

Guitar one 
2:59 - 3:29
|---------------------------------------------------------------|
|---------------------------------------------------------------|
|---------------------------------------------------------------|
|----7tp-5tp-3tp-2tp-0tp-2tp-3tp----7tp-5tp-3tp-2tp-0tp-2tp-3tp-|
|---------------------------------------------------------------|
|0tp-----------------------------0tp----------------------------|


guitar one           
2:59 - 3:29
|-------------------------------------------------------------|
|-------------------------------------------------------------|
|-------------------------------------------------------------|
|---7tp-5tp-3tp-2tp-0tp-2tp-3tp-------------------------------|
|----------------------------------7tp-5tp-4tp----8tp-7tp-5tp-|
|8tp---------------------------7tp------------8tp-------------|


Guitar two
2:59 - 3:29
|------------------------------------------------------------|
|------------------------------------------------------------|
|------------------------------------------------------------|
|0-----------------------------0-----------------------------|
|0-8tp-7tp-5tp-4tp-0tp-4tp-5tp-0-8tp-7tp-5tp-4tp-0tp-4tp-5tp-|
|0-----------------------------0-----------------------------|


Guitar two
2:59 - 3:29
|------------------------------------------------------------|
|------------------------------------------------------------|
|------------------------------------------------------------|
|8-----------------------------7--------------8-7tp-5tp-3tp--|
|8-8tp-7tp-5tp-4tp-0tp-4tp-5tp-7-10tp-8tp-7tp-8--------------|
|8-----------------------------7--------------8--------------|



Guitar two
3:30 - 3:45 
|------------------------------------------------------------|
|------------------------------------------------------------|
|------------------------------------------------------------|
|0-----------------------------0-----------------------------|
|0-8tp-7tp-5tp-4tp-0tp-4tp-5tp-0-8tp-7tp-5tp-4tp-0tp-4tp-5tp-|
|0-----------------------------0-----------------------------|


Guitar two
3:30 - 3:45
|------------------------------------------------------------|
|------------------------------------------------------------|
|------------------------------------------------------------|
|8-----------------------------7--------------8-7tp-5tp-3tp--|
|8-8tp-7tp-5tp-4tp-0tp-4tp-5tp-7-10tp-8tp-7tp-8--------------|
|8-----------------------------7--------------8--------------|


Guitar one
Im sure you can figure out the breakdown, it just changes when 
guitar two plays the 8 and 7 frets on the top string it goes with it. 
|-------------------------|
|-------------------------|
|-------------------------|
|-------------------------|
|0-0--0-0--0-0-0-0--0-0-0-|
|0-0--0-0--0-0-0-0--0-0-0-|
 x x  x x  x x x x  x x x


im too lazy to tab out the rest of the breakdown lol 
but im sure you can get it
just gallops till the end of the song.
Related for Eternal Regret tab