Song name
# A B C D E F G H I J K L M N O P Q R S T U V W X Y Z

Rose Funeral - The Well tab

Help us improve GuitareTab! Take a short survey!
Artist: Rose Funeral (www.myspace.com/rosefuneral)
Song: The Well
Album: Crucify. Kill. Rot. (2007)
TAB BY: straighttpuke
E-MAIL ME FOR ANY COMMENTS, QUESTIONS, SUGGESTIONS, ETC.


TUNING: DROPPED B


.  = palm mute
/  = slide up
h  = hammer on
t  = tap
p  = pull off
*  = tremolo
~  = let ring


LISTEN TO THE SONG TO SEE HOW MANY TIMES YOU PLAY IT

c#-------------------------|
g#-------------------------|
e----t15p7-----t14p7-------|
B--------------------------|
F#-------------------------|
B--------------------------|


c#-------------------------------------------------|
g#-------------------------------------------------|
e--------------------3-times-and-then--------------|
B---0--000-00----------------------------0-1-2-1---|
F#--0--000-00----------------------------0-1-2-1---|
B---0--000-00----------------------------0-1-2-1---|
       ... ..


c#---------------------------------------|
g#---------------------------------------|
e----------------------------------------|
B--0--000-000-000-000-000-000--0-1-2-1---|
F#-0--000-000-000-000-000-000--0-1-2-1---|
B--0--000-000-000-000-000-000--0-1-2-1---|
      ... ... ... ... ... ...

c#--------------------------------------------------------------|
g#--------------------------------------------------------------|
e---------------------------------------------------------------|
B---------------------------------------------------------------|
F#--5h8--------5h8---4h7---5h8--------5h8---7h10---5h8----------|
B-------000000-----0-----0-----000000-----0------0-----000000---|
        ......     .     .     ......     .      .     ......

c#------------------------|
g#------------------------|
e-------------------------|
B---0-11-2-1--------------|
F#--0-11-2-1--3-2---------|
B---0-11-2-1------3-2-----|
      ..
    ^^THESE ARE ONES, NOT ELEVENS.


This is the only part I'm not sure about:
c#-----------------------------|
g#-----------------------------|
e------------------------------|
B------------------------------|
F#--3*-2*---------5*-3*--------|
B---------3*-2*---------3*-2*--|

c#-------------------------------|
g#-------------------------------|
e--------------------------------|
B-----------------------5-4-1-0--|
F#----------------------5-4-1-0--|
B-----5*-4*-1*-0*-4*----5-4-1-0--|
                        . . . .

c#-------------------------|
g#-------------------------|
e--------------------------|
B---3*-7*-2*-3*-5*-7*------|
F#-------------------------|
B--------------------------|

c#-------------------------|
g#-------------------------|
e--------------------------|
B---3~/7--2~--3-5-7--------|
F#-------------------------|
B--------------------------|

c#------------------------------|
g#------------------------------|
e-------------------------------|
B---0--0-0-000-000-0------------|
F#--0--0-0-000-000-0------------|
B---0--0-0-000-000-0------------|
    .  . . ... ... .


c#-------------------------|
g#-------------------------|
e--------------------------|
B--------------------------|
F#--5*-8*-4*-5*-7*-8*------|
B--------------------------|


c#------------------------------|
g#------------------------------|
e-------------------------------|
B---0--0-0-000-000-0------------|
F#--0--0-0-000-000-0------------|
B---0--0-0-000-000-0------------|
    .  . . ... ... .

c#-------------------------------------------------|
g#-------------------------------------------------|
e--------------------3-times-and-then--------------|
B---0--000-00----------------------------0-1-2-1---|
F#--0--000-00----------------------------0-1-2-1---|
B---0--000-00----------------------------0-1-2-1---|
       ... ..


c#---------------------------------------|
g#---------------------------------------|
e----------------------------------------|
B--0--000-000-000-000-000-000--0-1-2-1---|
F#-0--000-000-000-000-000-000--0-1-2-1---|
B--0--000-000-000-000-000-000--0-1-2-1---|
      ... ... ... ... ... ...


END ON:
c#-------|
g#-------|
e--------|
B---0----|
F#--0----|
B---0----|
Related for The Well tab